Monkees - Im A Believer Chords & Tabs

 

Im A Believer Chords & Tabs

Monkees Chords & Tabs

Version: 2 Type: Tab 0 ratings
1 star 2 stars 3 stars 4 stars 5 stars
comments

Im A Believer Tab

   
-------------------------------------------------------------------------------
			Iím a Believer Ė THE MONKEYS
-------------------------------------------------------------------------------
Tabbed by:Carmencita_jovi
Email:Capricorn_saturn6@hotmail.com

Tuning:standard

This is the MELODY to the song by the monkeys. I canít really hear chords or riffs
Ė but these are always easy to work out. I donít really find chords that useful,
And tab I donít have time for. Melodies are easy and fun to play Ė especially for beginners.
[ Tab from: http://www.guitartabs.cc/tabs/m/monkees/im_a_believer_tab_ver_2.html ]
e|---------------------------------------------------------------------------|
B|---------------------------1---1---0--------------------------------------1|
G|-0----0------0---0---2--2-------------2----0-----0---0----0---0---2---2----|
D|---------------------------------------------------------------------------|
A|---------------------------------------------------------------------------|
E|---------------------------------------------------------------------------|
   I thought love was on-ly true in fai-ry tales. And for some-one else but not
e|---------------------------------------------------------------------------|
B|-1---0---1-----1---0---------------1---1--0-------------1---1--0-----------|
G|-----------------------2--0---0---------------2----0---------------2---0---|
D|---------------------------------------------------------------------------|
A|---------------------------------------------------------------------------|
E|---------------------------------------------------------------------------|
  For me. Whats the use of try-ing. All you get is pain. When I wan-ted sun- 
e|---------------------------------------------------------------------------|
B|--------------------------------------------0----0---0---------------------|
G|-0-------0-------------------0-----3----3------3---------3--------0--3-----|
D|------2-------4-----0--0--0------------------------------------0-----------|
A|---------------------------------------------------------------------------|
E|---------------------------------------------------------------------------|
  Shine I got rainÖ Then I saw her face, now Iím a be-lie-ver. Not a trace
e|------0-------0---------------------0----0---0-----------------------------|
B|--3-------3------3---------0--3--------3---------3--3----3---3----1----1---|
G|----------------------0----------------------------------------------------|
D|---------------------------------------------------------------------------|
A|---------------------------------------------------------------------------|
E|---------------------------------------------------------------------------|
   Of doubt in my mind. Iím in Love, Iím a Be-live-er, I could-nít leave her 
e|---------------------------------------------------------------------------|
B|-1--0-------------------------------------1---1--0-------------------------|
G|-------2--0---0----0-----0----0---2---2---------------2--0------0---0---0--|
D|---------------------------------------------------------------------------|
A|---------------------------------------------------------------------------|
E|---------------------------------------------------------------------------|
   If I tri-ed. I thought love was more or less of ev-ríy thing. The more I 
e|---------------------------------------------------------------------------|
B|------------------1---1---0------1--1----0--------------1-----1---0--------|
G|--0---0-----2--2----------------------------2--0---0-------------------2---|
D|---------------------------------------------------------------------------|
A|---------------------------------------------------------------------------|
E|---------------------------------------------------------------------------|
   Gave the less I got ooh yeah. Life was out to get me, thatís the way it 
e|---------------------------------------------------------------------------|
B|---------1-1---0-----------------------------------------------------------|
G|--0-----------------2---0---0-----0----------------------------------------|
D|-------------------------------2-------4-----------------------------------|
A|---------------------------------------------------------------------------|
E|---------------------------------------------------------------------------|
     Seemed. Dis-a-ppoint-ment haun-ted all my dreams.
| /  slide up
| \  slide down
| h  hammer-on
| p  pull-off
| ~  vibrato
| +  harmonic
| x  Mute note

Etc. Iím not sure of the lyrics Ė but thatís how the melody goes. If u have troubles pm me. Have fun!

===============================================================================
Comments