Monkees - Im A Believer Chords & Tabs

 

Im A Believer Chords & Tabs

Monkees Chords & Tabs

Version: 1 Type: Tab 0 ratings
1 star 2 stars 3 stars 4 stars 5 stars
comments

Im A Believer Tab

   
----------------------------------------------------------------------------
		Im a believer - the Monkees
----------------------------------------------------------------------------
Tabbed by:Josh Ritter
Email:heruoloorin@hotmail.com                                       
Tuning:standard (E-A-D-G-B-e)
[ Tab from: http://www.guitartabs.cc/tabs/m/monkees/im_a_believer_tab.html ]
 INTRO
e|1-1-0-0---------------------------------------|
B|3-3-1-1-3-------------------------------------|
G|0-0-0-0-4-------------------------------------|
D|--------5-----3------3---------3-----3--------|
A|-----------3h5---3h5---3h5-3h5---3h5---3h5----|
E|----------------------------------------------|

h=hammer-on
============================================================================
Comments