Monica Sex - Maca Afora Chords & Tabs

 

Maca Afora Chords & Tabs

Monica Sex Chords & Tabs

Version: 1 Type: Tab 0 ratings
1 star 2 stars 3 stars 4 stars 5 stars
comments

Maca Afora Tab

   
#----------------------------------PLEASE NOTE--------------------------------#
#This file is the author's own work and represents their interpretation of the#
#song. You may only use this file for private study, scholarship, or research.#
#-----------------------------------------------------------------------------#
#-- File created with Instab - http://www.pconline.com/~smcarey/instab.html --#
#-----------------------------------------------------------------------------#
[ Tab from: http://www.guitartabs.cc/tabs/m/monica_sex/maca_afora_tab.html ]
Author/Artist: îåðé÷ä ñ÷ñ
Title: îëä àôåøä
Album: ôöòéí åðùé÷åú
Transcribed by: David Miretski
---------0-------------0---------------0-------------5h3------------------------
-(3)-3-----3-------3-----3---3-----3-----3-------3-------3----------------------
-(2)---2-----2---0---0-----0-----4---4-----4---4---4----------------------------
--0------------2---------------4-------------5----------------------------------
--------------------------------------------------------------------------------
--------------------------------------------------------------------------------
                                                                              

---------0-------------0---------------0-----3----------------------------------
-(3)-3-----3-------3-----3---3-----3-----3---3----------------------------------
-(2)---2-----2---0---0-----0-----4---4-----4-4----------------------------------
--0------------2---------------4-------------5----------------------------------
--------------------------------------------------------------------------------
--------------------------------------------------------------------------------

áéú:
|Bm|D|G|A| X äøáä

ôæîåï:
|D|A|Em|G|

áàéæùäå ùìá äôøéèä îùúðä
                                                                              

Comments