Monica - Angel Of Mine Chords & Tabs

 

Angel Of Mine Chords & Tabs

Monica Chords & Tabs

Version: 4 Type: Tab 0 ratings
1 star 2 stars 3 stars 4 stars 5 stars
comments

Angel Of Mine Tab

   
4/4 Timing
(Capo on 1st fret)

(INTRO  Play Once)

  1 . 2 . 3 . 4 . |1 . 2 . 3 . 4 . |1 . 2 . 3 . 4 . |1 . 2 . 3 . 4 . |
e|----------------|----------------|----------------|----------------|
B|1-----1-------1-|0-----1---------|----1-----1-----|0-----1-------1-|
G|----0-------0---|----------------|--------0-----0-|----2-------0---|
D|--0-------0-----|--0-----2-------|--0---0-----0---|--0-------2-----|
A|----------------|------0---------|----------------|------0---------|
E|1---------------|3---------------|1---------------|3---------------|


  1 . 2 . 3 . 4 . |1 . 2 . 3 . 4 . |1 . 2 . 3 . 4 . |1 . 2 . 3 . 4 . |
e|----------------|----------------|------0---------|----------------|
B|1-----1-------1-|0-----1-------1-|3---------------|----------------|
G|----0-------0---|----2-------0---|----0-------0---|2-------0-2-----|
D|--0-------0-----|--0-------2-----|--0-----------0-|------0---------|
A|----------------|------0---------|2-----3---------|----------------|
E|1---------------|3---------------|------------0---|1---------------|


(VERSE 1  Play Twice)

  1 . 2 . 3 . 4 . |1 . 2 . 3 . 4 . |1 . 2 . 3 . 4 . |1 . 2 . 3 . 4 . |
e|----------------|----------------|----------------|----------------|
B|1-----1-------1-|0-----1---------|----1-----1-----|0-----1-------1-|
G|----0-------0---|----------------|--------0-----0-|----2-------0---|
D|--0-------0-----|--0-----2-------|--0---0-----0---|--0-------2-----|
A|----------------|------0---------|----------------|------0---------|
E|1---------------|3---------------|1---------------|3---------------|
      When I first saw you . . .
[ Tab from: http://www.guitartabs.cc/tabs/m/monica/angel_of_mine_tab_ver_4.html ]
  1 . 2 . 3 . 4 . |1 . 2 . 3 . 4 . |1 . 2 . 3 . 4 . |1 . 2 . 3 . 4 . |
e|----------------|----------------|------0---------|----------------|
B|1-----1-------1-|0-----1-------1-|3---------------|----------------|
G|----0-------0---|----2-------0---|----0-------0---|2---0-2-----0-2-|
D|--0-------0-----|--0-------2-----|--0-----------0-|--0-------0-----|
A|----------------|------0---------|2-----3---------|----------------|
E|1---------------|3---------------|------------0---|1---------------|
 
(PRE-CHORUS  Play Once)

  1 . 2 . 3 . 4 . |1 . 2 . 3 . 4 . |1 . 2 . 3 . 4 . |1 . 2 . 3 . 4 . |
e|----------------|----------------|----------------|----------------|
B|----------------|0-----0-------0-|1-----1-------1-|1-----1-------1-|
G|2---0-2-----0-2-|----0-------0---|----0-------0---|----2-------2---|
D|----------------|--2-------2-----|--2-------2-----|--2-------2-----|
A|--0-------0-----|----------------|0---------------|1---------------|
E|1---------------|0---------------|----------------|----------------|


(CHORUS)

  1 . 2 . 3 . 4 . |1 . 2 . 3 . 4 . |1 . 2 . 3 . 4 . |1 . 2 . 3 . 4 . |
e|----------------|----------------|----------------|----------------|
B|1-----1-------1-|0-----1-------1-|----1-----1-----|0-----1-------1-|
G|----0-------0---|------------0---|--------0-----0-|----2-------0---|
D|--0-------0-----|--0-------2-----|--0---0-----0---|--0-------2-----|
A|----------------|------0---------|----------------|------0---------|
E|1---------------|3---------------|1---------------|3---------------|
      You came into my life . . .


  1 . 2 . 3 . 4 . |1 . 2 . 3 . 4 . |1 . 2 . 3 . 4 . |1 . 2 . 3 . 4 . |
e|----------------|----------------|------0---------|----------------|
B|1-----1-------1-|0-----1-------1-|3---------------|----------------|
G|----0-------0---|----2-------0---|----0-------0---|2---0-2-----0-2-|
D|--0-------0-----|--0-------2-----|--0-----------0-|--0-------0-----|
A|----------------|------0---------|2-----3---------|----------------|
E|1---------------|3---------------|------------0---|1---------------|


(VERSE 2  Same as verse 1)

(PRE-CHORUS)

(CHORUS)

(BRIDGE)
  1 . 2 . 3 . 4 . |1 . 2 . 3 . 4 . |1 . 2 . 3 . 4 . |1 . 2 . 3 . 4 . |
  C                Em      Am       C                Em      Am


  1 . 2 . 3 . 4 . |1 . 2 . 3 . 4 . |1 . 2 . 3 . 4 . |1 . 2 . 3 . 4 . |
  C                Em               C       Em       C       F/E



(VERSE 1  Play Once)

(CHORUS)

(PRE-CHORUS)

(VERSE 1)
Comments