Mongo Jerry - In The Summertime Chords & Tabs

 

In The Summertime Chords & Tabs

Mongo Jerry Chords & Tabs

Version: 1 Type: Tab 0 ratings
1 star 2 stars 3 stars 4 stars 5 stars
comments

In The Summertime Tab

e--0--0---------------------------------------
b--------2h0--2h0-----------------------------
g-----------------0h1-------------------------
d---------------------2-----------------------
a---------------------------------------------
e--------------------------------------------
[ Tab from: http://www.guitartabs.cc/tabs/m/mongo_jerry/in_the_summertime_tab.html ]
e--4--2----2h4h2h0-2h4h2h0-2h4-----0-0-------------
b-------------------------------------2h0--2h0-----
g----------------------------------------------0h1-
d--------------------------------------------------2
a--------------------------------------------------
e--------------------------------------------------
i was bored


tabbed by matthew peter hanlon 
Comments