Moneen - With This Song I Will Destroy Myself Chords & Tabs

 

With This Song I Will Destroy Myself Chords & Tabs

Moneen Chords & Tabs

Version: 1 Type: Tab 0 ratings
1 star 2 stars 3 stars 4 stars 5 stars
comments

With This Song I Will Destroy Myself Tab

Artist: Moneen
Title: With This Song I Will Destroy Myself 

Standard Tuning


E|--0-----| 
B|--0-----|
G|--9-----| play as upstroke and let ring 
D|--9-----| 
A|--7-----| 
E|--0-----| 

E|--------------------------------------| 
B|--------------------o-----------------|
G|--pm--9-------------p----13---11------|(x2) 
D|------9---9----6----e-----x----x------|
A|------7---9----6----n----11----9------|
E|----------7----4----------------------|

E|-----------------------------------------| 
B|-----------------------o-----------------| 
G|--pm--9---8----4---6---p----13----11-----| (x2) 
D|------9---8----4---6---e-----x-----x-----|
A|------7---6----2---4---n----11-----9-----| 
E|-----------------------------------------|


E|-------------------------|
B|-------------------------|
G|----2----4----------2----|
D|----2----4----------2----|
A|----0----2----------0----| 
E|-------------------------| 

E|------------------------------------------------| 
B|------------------------------------------------| 
G|----9---8----4---6-------13----11---------------| (x2) 
D|----9---8----4---6--------x-----x---------------| 
A|----7---6----2---4-------11-----9---------------| 
E|------------------------------------------------| 





E|----------------------------------------| 
B|--------------------o-------------------|
G|--pm--9-------------p----13----11-------| (x2) 
D|------9---9----6----e-----x-----x-------| 
A|------7---9----6----n----11----9--------| 
E|----------7----4------------------------| 
[ Tab from: http://www.guitartabs.cc/tabs/m/moneen/with_this_song_i_will_destroy_myself_tab.html ]
E|-----------------------------------------| 
B|-----------------------o-----------------|
G|--pm--9---8----4---6---p----13----11-----|(x2) 
D|------9---8----4---6---e-----x-----x-----| 
A|------7---6----2---4---n----11-----9-----| 
E|-----------------------------------------| 


E|-------------------------|
B|-------------------------|
G|----2----4----------2----|
D|----2----4----------2----|
A|----0----2----------0----| 
E|-------------------------| 

E|---------|
B|---------|
G|----2----| Let Ring
D|----2----|
A|----0----| 
E|---------| 

E|----7-----4----0----4--| 


E|-------------------------| 
B|--------5h7--4--0--------| 
G|----------------------1--| 
D|-------------------------| 
A|-------------------------| 
E|----0--------------------| 

E|----------5p4--0--7-------| 
B|-------2------------------| 
G|--------------------------| 
D|--------------------------| 
A|----0---------------------| 
E|--------------------------| 



E|----12--11--7--9--7--4----| 

OR 

E|----12--11-----------------|
B|------------12--14--12--9--| 


E|----------------------|
B|----------------------| 
G|----4----6------------| 
D|----4----6---6---7----| 
A|----2----4---6---5----| 
E|-------------4---5----| 


E|------------------------------| 
B|------------------------------| 
G|----9----8----4----6----------| 
D|----9----8----4----6----7-----| 
A|----7----6----2----4----7-----| 
E|------------------------5-----| 

End On 
E|--------- 
B|--------- 
G|--------- 
D|----7---- 
A|----7---- 
E|----5---- 

Not 100% sure on accuracy, but you can figure it out, just listen. Hope you enjoy.
Comments