Moneen - Tonight Im Gone Chords & Tabs

 

Tonight Im Gone Chords & Tabs

Moneen Chords & Tabs

Version: 1 Type: Tab 0 ratings
1 star 2 stars 3 stars 4 stars 5 stars
comments

Tonight Im Gone Tab

Intro and verse
Guitar 1:
e|---------------------------------------------------------------------------|
B|---------------------------------------------------------------------------|
G|----6--6--6--6-------------------------------------------------------------|
D|----6--6--6--6-------------------------------------------------------------|
A|----4--4--4--4-------------------------------------------------------------|
E|---------------------------------------------------------------------------|
      xxxxxxxxxx 

Guitar 2 (stays the same until 0:53 in)
e|---------------------------------------------------------------------------|
B|---------------------------------------------------------------------------|
G|---------------------------------------------------------------------------|
D|---------------------------------------------------------------------------|
A|----4-4-4-4-4--------------------------------------------------------------|
E|----------------7-7-7-7-7--4-4-4-4-4--5-5-5-5-5----------------------------|
     xxxxxxxxxxxxxxxxxxxxxxxxxxxxxxxxxxxxxxxxxxx

Guitar 1 Throughout this darkened sea (0:30)
e|---------------------------------------------------------------------------|
B|---------------------------------------------------------------------------|
G|----6--6--6--6----6---6---6---6---6----------------------------------------|
D|----6--6--6--6---6-6-6-6-6-6-6-6-6-----------------x2----------------------|
A|----4--4--4--4--4---4---4---4---4------------------------------------------|
E|---------------------------------------------------------------------------|
      xxxxxxxxxxxxxxxxxxxxxxxxxxxxxxxxxxxxx 
Guitar 1
e|------------------0-0---0-0---0-0-0----------------------------------------|
B|-------------------4---4-4---4-4-------------------------------------------|
G|----6--6--6--6-------------------------------------------------------------|
D|----6--6--6--6--------------------------------x4---------------------------|
A|----4--4--4--4-------------------------------------------------------------|
E|---------------------------------------------------------------------------|

(instrumental)
Guitar 1                            (second time through dont do slide)
e|----------4-------------------------4--------------------------------------|
B|----5-4-----7-5---------------5-4-----7-5----------------------------------|
G|--4-----4-------4-6-4-------4-----4-------4-6 4/6\4-------x2---------------|
D|----------------------7-6--------------------------------------------------|
A|---------------------------------------------------------------------------|
E|---------------------------------------------------------------------------|
Guitar 2
e|---------------------------------------------------------------------------|
B|---------------------------------------------------------------------------|
G|---------------------------------------------------------------------------|
D|--7------6------------------7------6--------------------x2-----------------|
A|----------------7-----4------------------7-----4---------------------------|
E|---------------------------------------------------------------------------|

Guitar 1: Verse (but with some random chords, just listen and play something like)
e|---------------------------------------------------------------------------|
B|---------------------------------------------------------------------------|
G|----6--6--6--6------6--6---------6--6--6--6-------5b-----------------------|
D|----6--6--6--6------6--6---------6--6--6--6----------------x2--------------|
A|----4--4--4--4------4--4---------4--4--4--4--------------------------------|
E|---------------------------------------------------------------------------|

Guitar 2: Verse (play till 1:42)
e|---------------------------------------------------------------------------|
B|---------------------------------------------------------------------------|
G|---------------------------------------------------------------------------|
D|---------------------------------------------------------------------------|
A|----4-4-4-4-4--------------------------------------------------------------|
E|----------------7-7-7-7-7--4-4-4-4-4--5-5-5-5-5----------------------------|
     xxxxxxxxxxxxxxxxxxxxxxxxxxxxxxxxxxxxxxxxxxx

Guitar 1
e|------------------0-0---0-0---0-0-0----------------------------------------|
B|-------------------4---4-4---4-4-------------------------------------------|
G|----6--6--6--6-------------------------------------------------------------|
D|----6--6--6--6--------------------------------x4---------------------------|
A|----4--4--4--4-------------------------------------------------------------|
E|---------------------------------------------------------------------------|

(instrumental)
Guitar 2 
e|---------------------------------------------------------------------------|
B|---------------------------------------------------------------------------|
G|---------------------------------------------------------------------------|
D|--7------6------------------7------6--------------------x2-----------------|
A|----------------7-----4------------------7-----4---------------------------|
E|---------------------------------------------------------------------------|
[ Tab from: http://www.guitartabs.cc/tabs/m/moneen/tonight_im_gone_tab.html ]
Guitar 1 (comes in after guitar 2 goes through one time)
e|----------4-------------------------4--------------------------------------|
B|----5-4-----7-5---------------5-4-----7-5----------------------------------|
G|--4-----4-------4-6-4-------4-----4-------4-6 4----------------------------|
D|----------------------7-6--------------------------------------------------|
A|---------------------------------------------------------------------------|
E|---------------------------------------------------------------------------|

Breakdown:
Guitar 1 (2:00)                                         Begin to add at 2:32
e|-------------------------------------|-------------------------------------|
B|-------------------------------------|--------------9----------------------|
G|----6--6--6--6-----4--4--4---2--2----|--6--6--6--6--9--4--4--4---2--2------|
D|----6--6--6--6-----4--4--4---2--2----|--6--6--6--6--7--4--4--4---2--2------|
A|----4--4--4--4-----2--2--2---0--0----|--4--4--4--4-----2--2--2---0--0------|
E|-------------------------------------|-------------------------------------|
      xxxxxxxxxxxxxxxxxxxxxxxxxxxxx       xxxxxxxxxx     xxxxxxxxxxxxxx
Guitar 2 (2:17)
e|---------------------------------------------------------------------------|
B|---------------------------------------------------------------------------|
G|---------------------------------------------------------------------------|
D|------9-9-9-9------9-9-------7-7-------------------------------------------|
A|-----7-7-7-7------7-7-7-----7-7--------------------------------------------|
E|---9------------7---------5------------------------------------------------|

Guitar 1 (2:48)
e|-------------4--5-7--------------4---9-7-----------------------------------|
B|--5--5-4-5-7------------5--5-4-5---7---------------------------------------|
G|--------------------------------------------------x2-----------------------|
D|---------------------------------------------------------------------------|
A|---------------------------------------------------------------------------|
E|---------------------------------------------------------------------------|

Guitar 2 (2:48) pick repeatedly
e|---------------------------------------------------------------------------|
B|---------------------------------------------------------------------------|
G|---4-----------------------------------------------------------------------|
D|-----6---------------------------------------------------------------------|
A|---------------------------------------------------------------------------|
E|---------------------------------------------------------------------------|

Guitar 1 (3:04) (Cool effect)
e|---------------------------------------------------------------------------|
B|---9-9-9-9---9-9-9-9---7-7-7-7---12-12-12-12-------------------------------|
G|---9-9-9-9---9-9-9-9---8-8-8-8---11-11-11-11---------------x2--------------|
D|---------------------------------------------------------------------------|
A|---------------------------------------------------------------------------|
E|---------------------------------------------------------------------------|

Guitar 2 (3:04)
e|---------------------------------------------------------------------------|
B|---------------------------------------------------------------------------|
G|---6-6-6-6---6-6-6-6---4-4-4-4---4-4-4-4-----------------------------------|
D|---6-6-6-6---6-6-6-6---4-4-4-4---4-4-4-4---------x2------------------------|
A|---4-4-4-4---4-4-4-4---2-2-2-2---2-2-2-2-----------------------------------|
E|---------------------------------------------------------------------------|

Guitar 1 (repeat until outro, listen for strum change)
e|---------------------------------------------------------------------------|
B|---------------------------------------------------------------------------|
G|----6--6--6--6-----4--4--4---2--2------------------------------------------|
D|----6--6--6--6-----4--4--4---2--2------------------------------------------|
A|----4--4--4--4-----2--2--2---0--0------------------------------------------|
E|---------------------------------------------------------------------------|

Outro: play first part for both guitars, then second, then first.
Guitar 1            4:37: repeat note          (4:52 back to first)
e|---0-0-0-------|----0------------------------------------------------------|
B|--4-4----------|----5------------------------------------------------------|
G|--------4------|-----------------------------------------------------------|
D|---------------|-----------------------------------------------------------|
A|---------------|-----------------------------------------------------------|
E|---------------|-----------------------------------------------------------|

Guitar 2
Listen for change
4:06               4:37                        (4:52 back to first)
e|-----------4---|-----------------------------------------------------------|
B|---------------|----5----2---4---------------------------------------------|
G|-4-------------|-----------------------------------------------------------|
D|---------------|-----------------------------------------------------------|
A|---------------|-----------------------------------------------------------|
E|---------------|-----------------------------------------------------------|

Sounds correct to me.  Hope the guy who requested this tab finds this.
Comments and corrections e-mail kadence@gmail.com 
If you have a moneen request, I'll check it out, just e-mail me.
Comments