Moneen - Start Angy End Mad Chords & Tabs

 

Start Angy End Mad Chords & Tabs

Moneen Chords & Tabs

Version: 1 Type: Tab 0 ratings
1 star 2 stars 3 stars 4 stars 5 stars
comments

Start Angy End Mad Tab

   
Start Angy...end Mad
Tabbed by: Alan Bracewell
Email: kadence@gmail.com

Tuning:Standard

Intro:
Guitar 1
e|---------------------------------------------------------------------------|
B|-----------------10--12-------------------10--12--10-----------------------|
G|--11--12-------------------11--12--------------------------------x2--------|
D|----------9--10--------------------9--10-----------------------------------|
A|---------------------------------------------------------------------------|
E|---------------------------------------------------------------------------|
Guitar 2: Plays 3rd fret E string on the first note

Guitar 1               (a little off, any suggestions?)
e|------------------------10------------------10------------------10---------|
B|----------------10--12--------------10--12--------------10--12-------------|
G|--12------------------------11--12--------------11--12--------------x4---12|
D|--12-----------------------------------------------------------------------|
A|--10-----------------------------------------------------------------------|
E|---------------------------------------------------------------------------|
Guitar 2
e|---------------------------------------------------------------------------|
B|---------------------------------------------------------------------------|
G|------4---7----------------------------------------------------------------|
D|--5---4---7----x8----------------------------------------------------------|
A|--5---2---5----------------------------------------------------------------|
E|--3------------------------------------------------------------------------|

Guitar 1
e|---------------------------------------------------------------------------|
B|-----------------10--12-------------------10--12---------------------------|
G|--11--12-------------------11--12-------------------x4---------------------|
D|----------9--10--------------------9--10-----------------------------------|
A|---------------------------------------------------------------------------|
E|---------------------------------------------------------------------------|
Guitar 2 (Guitar 2 is tabbed relative to guitar 1 here)
e|---------------------------------------------------------------------------|
B|---------------------------------------------------------------------------|
G|---------------------------------------------------------------------------|
D|--5---------7------------9----------10---------------------x4--------------|
A|--5---------7------------9----------10-------------------------------------|
E|--3---------5------------7----------8--------------------------------------|
   

Verse:
Guitar 2 (or both) (Screw you and die...)
e|---------------------------------------------------------------------------|
B|---------------------------------------------------------------------------|
G|------------4----7----4----------------------------------------------------|
D|--5---------4----7----4------------------x4--------------------------------|
A|--5---------2----5----2----------------------------------------------------|
E|--3------------------------------------------------------------------------|

(Die! Die! Die!)
e|--------|
B|--------|
G|--------|
D|---5----|
A|---5----|
E|---3----|

Both guitars (Honesty makes you do...)
e|---------------------------------------------------------------------------|
B|---------------------------------------------------------------------------|
G|---------------------------------------------------------------------------|
D|--5----7----9----12----12----10----9----7----------------------------------|
A|--5----7----9----12----12----10----9----7----------------------------------|
E|--3----5----7----10----10----8-----7----5----------------------------------|
        xxxxxxxxxxxxxxxxxxxxxxxxxxxxxxxxxxxx
[ Tab from: http://www.guitartabs.cc/tabs/m/moneen/start_angy_end_mad_tab.html ]
Chorus: (say it...)
Guitar 1
e|---------------------------------------------------------------------------|
B|-----------------10--12-------------------10--12---------------------------|
G|--11--12-------------------11--12-------------------x4---------------------|
D|----------9--10--------------------9--10-----------------------------------|
A|---------------------------------------------------------------------------|
E|---------------------------------------------------------------------------|
GUitar 2
e|---------------------------------------------------------------------------|
B|---------------------------------------------------------------------------|
G|---------------------------------------------------------------------------|
D|--5---------7------------9----------10---------------------x4--------------|
A|--5---------7------------9----------10-------------------------------------|
E|--3---------5------------7----------8--------------------------------------|


Interlude:
e|--------|
B|--------|
G|--------|
D|---5----|
A|---5----|
E|---3----|

Guitar 1 repeats this      | It then changes to: (continues until 3:50)
e|----2--------------------|----------5--------------------------------------|
B|------3------------------|------------3------------------------------------|
G|--------4----------------|--------------4----------------------------------|
D|----------5--------x24---|----------------5--------------------------------|
A|-------------------------|-------------------------------------------------|
E|-------------------------|-------------------------------------------------|
 Guitar 2 (comes in after guitar 1's first part)
e|------------------|--------------------------------------------------------|
B|------------------|--------------------------------------------------------|
G|------------------|----------------12--------------------------------------|
D|---5------xabunch-|--55/77/99/1212-12--------------------------------------|
A|---5--------------|--55/77/99/1212-10--------------------------------------|
E|---3--------------|--33/55/77/1010-----------------------------------------|


Bridge:?
Gutiar 2 continued: (2 years is a long time to pretend!) just jumps between 2 chords
e|---------------------------------------------------------------------------|
B|---------------------------------------------------------------------------|
G|----------4----------------------------------------------------------------|
D|----5-----4----------------------------------------------------------------|
A|----5-----2----------------------------------------------------------------|
E|----3----------------------------------------------------------------------|

Chorus type thing: (3:50)
Guitar 2
e|---------------------------------------------------------------------------|
B|---------------------------------------------------------------------------|
G|------------4----7----4----------------------------------------------------|
D|--5---------4----7----4------------------x4--------------------------------|
A|--5---------2----5----2----------------------------------------------------|
E|--3------------------------------------------------------------------------|
Guitar 1
e|-----------------------10--------------------------------------------------|
B|---------------10--12------12--13--10/12\10--------------------------------|
G|--10--12-------------------------------------------------------------------|
D|---------9--10------------------------------------x4-----------------------|
A|---------------------------------------------------------------------------|
E|---------------------------------------------------------------------------|

Outro:
Guitar 2 random effects on this chord
e|--------|
B|--------|
G|--------|
D|---5----|
A|---5----|
E|---3----|
Guitar 1
Repeats till end
e|----2----------|
B|------3--------|
G|--------4------|
D|----------5----|
A|---------------|
E|---------------|


| /  slide up
| \  slide down
| h  hammer-on
| p  pull-off
| ~  vibrato
| +  harmonic
| x  Mute note
===============================================================================
Ok well thats pretty much it. There are quite a few random chords being played in there,
but it would be pretty hard to tab out.  Anyways, thats the best I can do, if you have
any corrections feel free to e-mail me. I probably got guitar 1 and 2 mixed up a bit,
but when they play the song live, they loop some of the picking, so be aware of that.
Comments