Moneen - Passing Of America Chords & Tabs

 

Passing Of America Chords & Tabs

Moneen Chords & Tabs

Version: 1 Type: Tab 0 ratings
1 star 2 stars 3 stars 4 stars 5 stars
comments

Passing Of America Tab

INTRO
Guitar 1
|-----------------------------------------------|
|-----------------------------------------------|
|-----------------------------------------------|
|---9---9---9---9---9-----9---9---9---6---6---6-|
|-7---7---7---6---6-----------------0---0---0---|
|---------------------7-9---9---9---------------|

|-----------------------------------------------|
|-----------------------------------------------|
|-------------------------------------9---------|
|---9---9---9---9---9-----9---9---9-----6-------|
|-7---7---7---6---6-----------------0-----0-----|
|---------------------7-9-----9---9-------------|

|-----------------------------------------------|
|-----------------------------------------------|
|-----------------------------------------------|
|---9---9---9---9---9-----9---9---9---6---6---6-|
|-7---7---7---6---6-----------------0---0---0---|
|---------------------7-9---9---9---------------|

Guitar 2
|-12-/--------7----\----12-/----------7----\----|
|-----------------------------------------------|
|-----------------------------------------------|
|-----------------------------------------------|
|-----------------------------------------------|
|-----------------------------------------------|

Guitar 1 (contd.)
|-----------------------------------------------|
|-----------------------------------------------|
|-----------------------------------------------|
|---9---9---9---9---9-----9---9--/--------------|
|-7---7---7---6---6-----------------------------|
|---------------------7-9---9----/--------------|

Guitar 2
|-12-/--------7----\----12-------/--------------|
|-----------------------------------------------|
|-----------------------------------------------|
|-----------------------------------------------|
|-----------------------------------------------|
|-----------------------------------------------|

INTRO 2
Guitar 1 (x2)
|--------------------------------------------------------|
|--------------------------------------------------------|
|-9-9-9-9-9-9-9-9-9-9------------------------------------|
|-9-9-9-9-9-9-9-9-9-9-9-11-11-11-11-11-11-7-7-7-7-7------|
|-7-7-7-7-7-7-6-6-6-6-9-11-11-11-11-11-11-7-7-7-7-7------|
|---------------------7-9--9--9--9--9--9--5-5-5-5-5------|

Guitar 2
|--------------------------------------------------------|
|--------------------------------------------------------|
|-13-13-13-13-13-13-11-11-11-13-9-9-9-9-9-9-8-8-8-4------|
|--------------------------------------------------------|
|-11-11-11-11-11-11-9--9--9--11-7-7-7-7-7-7-6-6-6-2------|
|--------------------------------------------------------|

Guitar 2 (contd.)
|--------------------------------------------------------|
|--------------------------------------------------------|
|-13-13-13-13-13-13-16-16-16-16-16-16--16-14-13-14-13-11-|
|--------------------------------------------------------|
|-11-11-11-11-11-11-14-14-14-14-14-14--14-12-11-12-11-9--|
|--------------------------------------------------------|

VERSE
|------------------------------------------------------------|
|------------------------------------------------------------|
|------------------------------------------------------------|
|------------------------------------------------------------|
|-9-11-11-11-11-11-9-11-11-11-11-11-9-11-11-11-11-11-11-9-7--|
|------------------------------------------------------------|
[ Tab from: http://www.guitartabs.cc/tabs/m/moneen/passing_of_america_tab.html ]
|-------------------------------------------------------------|
|-------------------------------------------------------------|
|-------------------------------------------------------------|
|-------------------------------------------------------------|
|-9-11-11-11-11-11-9-11-11-11-11-11-9-11-11-11-11-11-14-12-11-|
|-------------------------------------------------------------|
                                 pm...............|

|------------------------------------------------------------------------------|
|------------------------------------------------------------------------------|
|------------------------------------------------------------------------------|
|------------------------------------------------------------------------------|
|-9-11-9-7-9-7-6-4-2-4-6-7-6-7-9-7-6---6-7-6-7-6---6-7-6-7-6---6-7-6-7-6---6-7-|
|------------------------------------7-----------7-----------7-----------7-----|

BACK TO INTRO 2

VERSE

BACK TO INTRO 2

THEN
'its the passing of..'
|----12----12----12----12----12----12--|
|-12----12----12----12----12----12-----|
|--------------------------------------|
|--------------------------------------|
|--------------------------------------|
|--------------------------------------|

'..america'            CHORUS
|---------------------|------------------------------------------|
|---------------------|------------------------------------------|
|-9-9-9-9-9-9-9-9-9-4-|--9-9-9-9---14-13-11-9-9-9-9-9-9-9-9-9-4--|
|---------------------|------------------------------------------|
|-7-7-7-7-7-7-6-6-6-2-|--7-7-7-7---12-11-9--7-7-7-7-7-7-6-6-6-2--|
|---------------------|------------------------------------------|

|----------|
|----------|
|----------|
|-2-~---2--|
|-2-~---2--|
|-0-~---0--|

Guitar 1
|-----------------|
|-----------------|
|-------9-8-------|
|-6-7-9------9----|
|-----------------|
|-----------------|

Guitar 2 (after 2 X Guitar 1)
|----------------|
|----------------|
|-------9-11-9---|
|-6-7-9----------|
|----------------|
|----------------|

THEN
Guitar 1
|--------------------------------------------------|
|--------------------------------------------------|
|-9-9-9-9-9-9-9-9-9-9-9-9-9-9-9-9-9-9-9-9-9-9-9-9--|
|--------------------------------------------------|
|-7-7-7-7-7-7-7-7-7-7-7-7-6-6-6-6-6-6-6-6-6-6-6-6--|
|--------------------------------------------------|

Guitar 2 (contd.)
|----------------|
|----------------|
|-------9-11-9---|
|-6-7-9----------|
|----------------|
|----------------|

Guitar 1 (contd.)
|--------------------------------------------------|
|--------------------------------------------------|
|-9-9-9-9-9-9-9-9-9-9--11-9-9-9-9-9-9-9-9-9-9-9-9--|
|--------------------------------------------------|
|-7-7-7-7-7-7-7-7-7-7--9--6-6-6-6-6-6-6-6-6-6-6-6--|
|--------------------------------------------------|

Guitar 2 (contd.)
|----------------|
|----------------|
|-------9-11-9---|
|-6-7-9----------|
|----------------|
|----------------|

CHORUS

THEN (approx... improvise some)
|------------------|
|------------------|
|---9--------------|
|-----9-6-9-7-6----|
|-7-------------7--|
|------------------|

THEN
Guitar 1
|--------------------|
|--------------------|
|--------------------|
|-6----7----2--------|
|-6----7----2--------|
|-4~---5~---0~~~-----|

Guitar 2
|--------------------|
|--------------------|
|-------------9-8----|
|-----------------9--|
|--------------------|
|--------------------|

THEN
|--------------------|
|--------------------|
|--------------------|
|--------------------|
|---------7~---------|
|-4---5--------------|

...and thats it up the the negative bit. i cant figure that part out
Comments