Moneen - How To Live With The Thought That Sometimes Life Ends Chords & Tabs

 

How To Live With The Thought That Sometimes Life Ends Chords & Tabs

Moneen Chords & Tabs

Version: 1 Type: Tab 0 ratings
1 star 2 stars 3 stars 4 stars 5 stars
comments

How To Live With The Thought That Sometimes Life Ends Tab

Intro:
Guitar 1 (the # of times played, is counted by downstrokes)
e|----------------------------------------------------------------------------------------------|
B|----------------------------------------------------------------------------------------------|
G|----------------------------------------------------------------------------------------------|
D|----------------------------------------------------------------------------------------------|
A|---7--54x--------7-4x-----2-8x---4-4x-----7-8x------------------------------------------------|
E|----------------------------------------------------------------------------------------------|
Guitar 2 (comes in after GUitar 1 does first note 24 times)
e|----------------------------------------------------------------------------------------------|
B|----------------------------------------------------------------------------------------------|
G|----------------------------------------------------------------------------------------------|
D|---6--30x--6/9---9-16x----4-8x----6-24x-------------------------------------------------------|
A|----------------------------------------------------------------------------------------------|
E|----------------------------------------------------------------------------------------------|
Guitar 1
e|----------------------------------------------------------------------------------------------|
B|------------------12-------12--9--7--12-------------------------------------------------------|
G|----------------------------------------9----------9-9-9-9-9-9--------------------------------|
D|---9------------------------------------------------------------------------------------------|
A|-----9--7------------------------------------------7-7-7-7-7-7--------------------------------|
E|----------------------------------------------------------------------------------------------|
Guitar 2
e|----------------------------------------------------------------------------------------------|
B|----------------------------------------------------------------------------------------------|
G|-------------4/9-----4/9---------------------------9-9-9-9-9-9--------------------------------|
D|----------------------------------------------------------------------------------------------|
A|---------------------------------------------------7-7-7-7-7-7--------------------------------|
E|----------------------------------------------------------------------------------------------|


e|----------------------------------------------------------------------------------------------|
B|------------------5----------------------5----------------------------------------------------|
G|------------------4--------------4-------4-------x2-------------------------------------------|
D|--9/4-4/6-6/2-----2----9/4-4/6-6/--------2----------------------------------------------------|
A|----------------------------------------------------------------------------------------------|
E|----------------------------------------------------------------------------------------------|


No... Somehow you, somehow knew! (E = 11)
e|----------------------------------------------------------------------------------------------|
B|----------------------------------------------------------------------------------------------|
G|---9999--------------------------------------8888---------------------------------------------|
D|---9999--9999--EEEE--77----7777--9999--EEEE--8888---4x----------------------------------------|
A|---7777--9999--EEEE--77----7777--9999--EEEE--6666---------------------------------------------|
E|---------7777--9999--55----5555--7777--9999---------------------------------------------------|
     xxxxxxxxxxxxxxxx        xxxxxxxxxxxxxxxxxxxxxx

Both GUitars (I won't say goodbye)
e|----------------------------------------------------------------------------------------------|
B|----------------------------------------------------------------------------------------------|
G|----11-11-11-11--13-13-13-13-------14-14-14-14--13-13-13-13----x2-----9-----------------------|
D|----------------------------------------------------------------------------------------------|
A|-----9--9--9--9--11-11-11-11-------12-12-12-12--11-11-11-11-----------7-----------------------|
E|----------------------------------------------------------------------------------------------|

You said you'll know..
e|----------------------------------------------------------------------------------------------|
B|----------------------------------------------------------------------------------------------|
G|---------------------------9999-9999----------------------------------------------------------|
D|---7777-7777--9999--EEEE---9999-7777--EEEE--99-----x3-----------------------------------------|
A|---7777-7777--9999--EEEE---7777-7777--EEEE--99------------------------------------------------|
E|---5555-5555--7777--9999--------------9999--77------------------------------------------------|
     xxxxxxxxxxxxxxxxxxxxxxxxxxxxxxxxxxxxxxx

Go... Go....
e|----------------------------------------------------------------------------------------------|
B|----------------------------------------------------------------------------------------------|
G|---------------------------------9------------------------------------------------------------|
D|---7777-7777--9999--EEEE---------9------------------------------------------------------------|
A|---7777-7777--9999--EEEE---x2----7------------------------------------------------------------|
E|---5555-5555--7777--9999----------------------------------------------------------------------|

Guitar 2 (comes in at "you must be crazy")
e|---------------------------------------------------------|--------------------------------------|
B|---------------------------------------------------------|--------------------------------------|
G|----9-8-6----------------------------------6-8-9/E/8-----|----------------6-8-9/E--x2--9/E/6/9--|
D|----------9-7-6----------------------6-7-9-------------x2|----------6-7-9-----------------------|
A|----------------9-7-6----------6-7-9---------------------|----6-7-9-----------------------------|
E|----------------------9----7-9---------------------------|7-9-----------------------------------|
[ Tab from: http://www.guitartabs.cc/tabs/m/moneen/how_to_live_with_the_thought_that_sometimes_life_ends_tab.html ]
e|----------------------------------------------------------------------------------------------|
B|------------------5----------------------5----------------------------------------------------|
G|------------------4--------------4-------4-------x2-------------------------------------------|
D|--9/4-4/6-6/2-----2----9/4-4/6-6/--------2----------------------------------------------------|
A|----------------------------------------------------------------------------------------------|
E|----------------------------------------------------------------------------------------------|

       I wont say goodbye
e|----------------------------------------------------------------------------------------------|
B|----------------------------------------------------------------------------------------------|
G|----11-11-11-11--13-13-13-13/16-16------14-14-14-14--13-13-13-13/16-16---x2-----9-------------|
D|----------------------------------------------------------------------------------------------|
A|-----9--9--9--9--11-11-11-11/14-14------12-12-12-12--11-11-11-11/14-14----------7-------------|
E|----------------------------------------------------------------------------------------------|

(let ring)        "Please Do Something"
e|----------------------------------------------------------------------------------------------|
B|----------------------------------------------------------------------------------------------|
G|-13--------------9----------6/9--9------------------------------------------------------------|
D|----------------------------------------------------------------------------------------------|
A|-11--------------7----------4/7--7------------------------------------------------------------|
E|----------------------------------------------------------------------------------------------|
GUitar 1
e|----------------------------------------------------------------------------------------------|
B|----------------------------------------------------------------------------------------------|
G|--9-------------------------------------------------------------------------------------------|
D|--9------------6-7-9-7-6---x8-----------------------------------------------------------------|
A|--7------6-7-9--------------------------------------------------------------------------------|
E|-----7-9--------------------------------------------------------------------------------------|
Guitar 2 (comes in during the 4th time guitar 1 plays and the 8th time)
e|----------------------------------------------------------------------------------------------|
B|--12-12-12-12-12--7-7-7-7-7-7-9---------------------------9/11/6/9----------------------------|
G|----------------------------------------------------------------------------------------------|
D|----------------------------------------------------------------------------------------------|
A|----------------------------------------------------------------------------------------------|
E|----------------------------------------------------------------------------------------------|

Guitar 1           (slide up slow, tremelo pick the whole way)
e|-----------------7---7/21--21--21/7--7--------------------------------------------------------|
B|----------------------------------------------------------------------------------------------|
G|----------------------------------------------------------------------------------------------|
D|--7--6----------------------------------------------------------------------------------------|
A|--7--6----------------------------------------------------------------------------------------|
E|--5--4----------------------------------------------------------------------------------------|

Guitar 2
e|----------------------------------------------------------------------------------------------|
B|----------------------------------------------------------------------------------------------|
G|----------------------------------------------------------------------------------------------|
D|-----------6--------9------6-----6------------x4----------------------------------------------|
A|---------7---7----7---7------7-----7---7------------------------------------------------------|
E|-------7--------9--------5-----5-----5--------------------------------------------------------|

Cause if you scream do something...
e|----------------------------------------------------------------------------------------------|
B|----------------------------------------------------------------------------------------------|
G|----------------------------------------------------------------------------------------------|
D|---6----7----9----7----6----7---7-------------------------------------------------------------|
A|---6----7----9----7----6----7---7-------------------------------------------------------------|
E|---4----5----7----5----4----5---5-------------------------------------------------------------|
     xxxxxxxxxxxxxxxxxxxxxxxxxxxxx

What you said...
e|----------------------------------------------------------------------------------------------|
B|------------------5----------------------5----------------------------------------------------|
G|------------------4--------------4-------4-------x4-------------------------------------------|
D|--9/4-4/6-6/2-----2----9/4-4/6-6/--------2----------------------------------------------------|
A|----------------------------------------------------------------------------------------------|
E|----------------------------------------------------------------------------------------------|

Outro:
Guitar 1
e|---------------------------|------------------------------------------------------------------|
B|----------9/12/5--9/12/5---|------------------------------------------------------------------|
G|--9------------------------|---9-8---6--------------------9-8---6-----------------------------|
D|--9------------------------|-------9---7-6-------x3-----------9----9--------------------------|
A|--7------------------------|---------------9-7------------------------9-7---------------------|
E|---------------------------|------------------------------------------------------------------|
Guitar 2
e|---------------------------|------------------------------------------------------------------|
B|--12---10--9--7---12-------|------------------------------------------------------------------|
G|---------------------------|---9-8--9p8----8--------------9-8---9p8---------------------------|
D|---------------------------|-------9----9-6--9---x3-----------9----9--------------------------|
A|---------------------------|------------------------------------------9--7--------------------|
E|---------------------------|------------------------------------------------------------------|

Thats what I hear, sounds pretty good played next to the cd. If you have any
corrections e-mail kadence@gmail.com . The guitar 1 and 2 may be a bit mixed,
but I don't know how Moneen plays this song.
Comments