Moneen - Are We Really Happy With Who We Are Right Now Chords & Tabs

 

Are We Really Happy With Who We Are Right Now Chords & Tabs

Moneen Chords & Tabs

Version: 1 Type: Bass Tab 0 ratings
1 star 2 stars 3 stars 4 stars 5 stars
comments

Are We Really Happy With Who We Are Right Now Bass Tab

   
Moneen - Are We Really Happy With Who We Are Right Now
Tuning: Standard (E A D G)


G-------------------------------|
D-------------------------------|
A-------------------------------|
E-7-7----00000000-7-7-7-7-77777-|

Verse:x2
G------------------------------------|
D------------------------------------|
A-6666666666666666-77777777----------|
E---------------------------77777777-|

G-------------------------------|
D-------------------------------|
A-6666666666666666-77777777-----|
E---------------------------7-7-|

G----------------------------|
D----------------------------|
A-6666666666666666-7777------|
E-----------------------7777-|

Chorus:x3
G------------------|       G-----------------------------|
D------------------|       D-----------------------------|
A------------------|       A-----------------------------|
E-4-4-444--7-7-777-|       E-0--0--0--0--0-0-0-0-0-0-0-0-|

Break
G------------------------------------|
D------------------------------------|
A-6666666666666666-77777777----------|
E---------------------------77777777-|


G--------------------------------------------|
D--------------------------------------------|
A-6666666666666666-77777777------------------|
E---------------------------7777-Short-Pause-|

[ Tab from: http://www.guitartabs.cc/tabs/m/moneen/are_we_really_happy_with_who_we_are_right_now_btab.html ]
G--------------------|
D--------------------| 
A-6666~--------------|
E----------000~-777~-|

Verse:x3
G------------------------------------|
D------------------------------------| 
A-6666666666666666-77777777----------|
E---------------------------77777777-|

G------------------------|
D------------------------|
A-6666-pause---777~------|
E-------------------777~-|

Chorus:x3                 Chorus Continues: x4
G------------------|     G-----------------------------|
D------------------|     D-----------------------------| 
A------------------|     A-----------------------------|
E-4-4-444--7-7-777-|     E-0--0--0--0--0-0-0-0-0-0-0-0-|

Interlude:x2
G-------------------------------------------------------|
D-------------------------------------------------------|
A-------------------22-2222--------------------22-11----|
E-44-4--2-2--00-00-----------44-4--2-2--00-00--------22-|

x2
G----------------------------------------|    G---------|
D----------------------------------------|    D---------|
A---------------------77-7-7-7--66-6-6-6-|    A---------|
E-44-4-4-4--77-7-7-7---------------------|    E-4--7--7-|


G----------------------------------|
D----------------------------------|
A-6-7~--7-66-7~--7-6-6-7------76-|
E-------------------------47------|

Outro:x9
G-----------------|
D-----------------| 
A---------------2-|
E-24244222--00---|
Comments