Monaco - What Do You Want From Me Chords & Tabs

 

What Do You Want From Me Chords & Tabs

Monaco Chords & Tabs

Version: 1 Type: Tab 0 ratings
1 star 2 stars 3 stars 4 stars 5 stars
comments

What Do You Want From Me Tab

Song: What do you want from me?
Artist: Monaco
Tabbed by: Leon Stern ThruTheFlames@hotmail.com


I´m not really sure about if it´s played on the D & G or A & D strings.
I´ve only playing guitar for six month so I haven´t really 
got the hang of it all just yet and this is my first tab ,you see. 
If you can figure it out, please let me know so I can get it right.


These are the main riffs.

Intro
[ Tab from: http://www.guitartabs.cc/tabs/m/monaco/what_do_you_want_from_me_tab.html ]
E |-----------------------------------------------
B |-----------------------------------------------
G |-----------------------------------------------
D |------------2-------2--------------------------
A |-0--3-0-3-5---5-3-5---5-3-2---0----------------
E |----------------------------3------------------

Chorus:

E |-----------------------------------------------
B |-----------------------------------------------
G |----------------------------------------------
D |---------------------------2-------------------
A |--0-3-5-5-5-3-0--------0-3---5-5-3-5-----------
E |-----------------------------------------------

Have fun!
Comments