Monaco - What Do You Want From Me Chords & Tabs

 

What Do You Want From Me Chords & Tabs

Monaco Chords & Tabs

Version: 1 Type: Bass Tab 0 ratings
1 star 2 stars 3 stars 4 stars 5 stars
comments

What Do You Want From Me Bass Tab

Classic Peter Hook bass riffs, any corrections can be sent to andypdavidson@hotmail.com, 
i thinks its just about right.
Anyone know the verse tabs?


INTRO:
[ Tab from: http://www.guitartabs.cc/tabs/m/monaco/what_do_you_want_from_me_btab.html ]
|----7---7----7--9--9/11--9--7--9--9/11--9--7--9--7---------|
|--9---9---9----------------------------------------9-------|
|-----------------------------------------------------------|
|-----------------------------------------------------------|


CHORUS

|-----7--9--9--9--7---------7--9/11--9--9--7--9--------|
|--9-----------------9----9----------------------------|
|------------------------------------------------------|
|------------------------------------------------------|
Comments