Molotov - Nero Chords & Tabs

 

Nero Chords & Tabs

Molotov Chords & Tabs

Version: 2 Type: Bass Tab 0 ratings
1 star 2 stars 3 stars 4 stars 5 stars
comments

Nero Bass Tab

   
Molotov
Nero
As performed in the album Apocalipshit
Tabbed by Irwin Alvarado
iab250@prodigy.net.mx Army tabber
www.basstabarchive.com


Verse

G|--------------------|
D|*-----------------5*|
A|*----7---5--5h6-5--*|
E|-5------------------| Play as needed


Chorus

G|----------------------------|----------------------------|
G|----------------------------|----------------------------|
A|-0---0h3-3---0h3h5--5h6-6--5|-0---0h3-3---3h5--5h6-6-6-5-|
E|----------------------------|----------------------------|
[ Tab from: http://www.guitartabs.cc/tabs/m/molotov/nero_btab_ver_2.html ]
G|----------------------------|----------------------------|
D|----------------------------|----------------------------|
A|-0---0h3-3---0h3h5--5h6-6--5|-0---0h3-3---3h5X-----------|
E|----------------------------|----------------------------|

Bridge:

G|----------2-3-4-|----------------|----------2-3-4-|
D|--0-2-3-4-------|--0-2-3-4-3-2-0-|--0-2-3-4-------|
A|2---------------|2---------------|2---------------|
E|----------------|----------------|----------------|

G|4-4-2h4-4-2h4-4-4-4-4-4-7|
D|-------------------------|
A|-------------------------|
E|-------------------------|

And that's all. Pretty easy song.
Comments