Molotov - Gimme Tha Power Chords & Tabs

 

Gimme Tha Power Chords & Tabs

Molotov Chords & Tabs

Version: 1 Type: Bass Tab 0 ratings
1 star 2 stars 3 stars 4 stars 5 stars
comments

Gimme Tha Power Bass Tab

Hi everybody, this is the famous molotov song, this is the real bass tabs,
enjoy it!!! granpesadilla@hotmai.com
----------
Hola a todos, Este es la cancion famosa de molotov, este es el tab verdadero
del bajo, Disfrutenlo!!! granpesadilla@hotmai.com
[ Tab from: http://www.guitartabs.cc/tabs/m/molotov/gimme_tha_power_btab.html ]
G|----------------|
D|----------------|
A|-44--22--00-----|
E|-------------44-|

G|----------------|
D|----------------|
A|-44--676--------|
E|---------55--44-|

Chorus/Coro
 Only/Solo:

G|----------------|
D|----------------|
A|-44--22--00-----|
E|-------------44-|

By: Sr. Mota
Comments