Molotov - El Mundo Chords & Tabs

 

El Mundo Chords & Tabs

Molotov Chords & Tabs

Version: 1 Type: Tab 0 ratings
1 star 2 stars 3 stars 4 stars 5 stars
comments

El Mundo Tab

   
El Mundo - Molotov
Estrofas

e|----------------------------------------------|
B|-------------------0-1-0----------------------|
G|-----2-----------2-------2-0-----2------------|
D|---2-------------2-------------2--------------|
A|-0---------2-0-0-------------0---------2-0-0--|
E|-------0-3-------------------------0-3--------|

No fuckin fun boys n' girls and you know why
No fuckin fun boys n' girls coz the world is coming to its end
Yo sugeriría un mezcal en las rocas
da sabiduría y aclara lo que afocas
aunque darse cuenta no está nada cabrón
que viene de bajada en picada este avión
sobran razones para estar gritando
Nuestro planeta se está asfixiando

Coro:
         C
El mundo se va a acabar
         Dm
El mundo se va a acabar
              G
Si un día me has de querer
         C
Te debes apresurar


Enlace:
[ Tab from: http://www.guitartabs.cc/tabs/m/molotov/el_mundo_tab.html ]
e|----------------------------------------------|
B|----------------------------------------------|
G|---------2------------------------------------|
D|-------2--------------------------------------|
A|-3-2-0---------2-0-0--------------------------|
E|-----------0-3--------------------------------|
Se acaba la vida, se acaba el agua
se acaba la selva y 'nadie hace nada'
se acaba la mentira, se pone mas raro
aquí no se respira si no tienes baro
aunque la onda sea vivir en la luna
yo sigo pensando 'me he de comer esa tuna'
ha sido pesado vivir los noventas
la banda pacheca sigue re-contenta

CORO




Puente (Más o menos así va)

e|-----------------------------------------------------------------|
B|------------------------------b--------------------------------b-|
G|------------------------0---3-2---------------------------0--5-4-|
D|-----------------------0---------------------------------0-------|
A|---0-0-0-2-3-3-2-0----0--------------3-3-3-5-6-6-5-3----0--------|
E|-0-----------------1---------------2-----------------3-----------|



No tengo prisa de hacer nada
ahí la llevo mientras se acaba
puro cariño todo el mundo se quiere
pero el que se descuida tantito se muere
faltan dirigentes de esta chula tierra
falta que organicen otra guerra
ha sido pesado vivir los noventas
la banda pacheca seguimos re-contenta

CORO

Final
C Dm G C


Acordes
    C   Dm  G
e:|-0---1---2------------------------------|
B:|-1---3---0------------------------------|
G:|-0---2---0------------------------------|
D:|-2---0---0------------------------------|
A:|-3---0---2------------------------------|
E:|-0---0---3------------------------------|
Comments