Molotov - Diseno Rolas Chords & Tabs

 

Diseno Rolas Chords & Tabs

Molotov Chords & Tabs

Version: 1 Type: Tab 0 ratings
1 star 2 stars 3 stars 4 stars 5 stars
comments

Diseno Rolas Tab

   
Aki sta una de las nuevas canciones de MOLOTOV.
  pm........
|------------|
|---------10-| REPITELO
|-10-7-10----| VARIAS VECES Y LE VAS KITANDO
|------------| EL PALM MUTE CADA VEZ Q LO REPITAS
|------------|
|------------|

AKI STA LO SIGUIENTE
(intro parte 2)
|---------------------------------------|
|---------10-----------------10---------|
|-10-7-10----10-7-10----7-10----10------| x4
|---------------------------------------|
|---------------------------------------|
|---------------------------------------|

EL BAJO TOKA STO
|----------|
|----------|
|-5--5-----|
|------5-5-|

VERSO(x2)
No es ningun........iso (kien sabe q diga)
      D5
|--------------|--------------------------------------|
|--------------|------10----13-11-10-------10---------|
|-7---7-7--7-7-|-7-10----10-----------7-10----10-7-10-|
|-7---7-7--7-7-|--------------------------------------|
|-5---5-5--5-5-|--------------------------------------|
|--------------|--------------------------------------|

CORO
[ Tab from: http://www.guitartabs.cc/tabs/m/molotov/diseno_rolas_tab.html ]
Soy un buenisimo pa nada.......la sociedad me da mi ada
  G5     G5 G5  G5 G5    A5     A5 A5  A5 A5
|---------------------------------------------|
|---------------------------------------------|
|-12-----12-12--12-12----14-----14-14--14-14--|
|-12-----12-12--12-12----14-----14-14--14-14--|
|-10-----10-10--10-10----12-----12-12--12-12--|
|---------------------------------------------|

................DISEŅO ROLAs
  G5   G5  A5
|-------------|
|-------------|
|-------------|
|-5-X--5-5--7-|  X2
|-5-X--5-5--7-|
|-3-X--3-3--5-|

INTERMEDIO
ste s el intro del intermedio
|---------------8-9-10-|
|-10-9-10-11-12--------|
|----------------------|
|----------------------|
|----------------------|
|----------------------|

sigue el (intro parte 2)pero con otro efecto en el pedal
y luego sigue sto
|--------------------------------------------------|
|--------------------------------------------------|
|-12-12-12-12-12-12-12-12--14-14-14-14-14-14-14-14-|
|--------------------------------------------------|
|--------------------------------------------------|
|--------------------------------------------------|

luego sigue el coro y en ste coro agregas la parte de arriba

y luego sigue el final (q s = al intro del intermedio)
nomas q cuando tokas la nota final agregas D5
 D5
|---|
|---|
|-7-|
|-7-|
|-5-|
|---|
Comments