Molotov - Amateur Chords & Tabs

 

Amateur Chords & Tabs

Molotov Chords & Tabs

Version: 1 Type: Tab 0 ratings
1 star 2 stars 3 stars 4 stars 5 stars
comments

Amateur Tab

   
-----------------------------------------------------------------------------
			     AMATEUR - Molotov
-----------------------------------------------------------------------------
Tabbed by: cocofuhgawz@hotmail.com
Email: Coco

Tuning:Normal


Intro (with distortion)
e|-----------------------------------|
B|-----------------------------------|
G|-----------------------------------| <--- Play 4 times
D|--------5--------------------------|
A|----5-----7/3--7-----5-------------|
E|--7---7----------(0)---(0)---------|
   

Bridge (with distortion)
e|------------|
B|------------|
G|------------|
D|--------5---|
A|----5-------|
E|--7---7-----|


Verse (with distortion)
e|--------------------------|
B|--------------------------|
G|-------5----2----4--------|
D|--2----5----2----4----2---|
A|--2----3----0----2----2---|
E|--0-------------------0---|


Bridge

[ Tab from: http://www.guitartabs.cc/tabs/m/molotov/amateur_tab.html ]
Riff
e|--------------------|
B|--------------------|
G|--------------------|<---play 3 times
D|------9---7---5-4---|
A|--7-7---7---7-------|
E|--------------------|


<>

Intro<---play 2 times

Bridge

Verse

Bridge

Riff<---play 3 times

<>

Intro<---play 2 times

Verse

Riff<---play 3 times

Bridge

<>

Riff 2 (with distortion)
e|--12h-10h-----10h-----10h-12h-10h-----10h---|
B|----------12h-----12h-------------12h-------|
G|--------------------------------------------|<---play 4 times
D|--------------------------------------------|
A|--------------------------------------------|
E|--------------------------------------------|

Verse

Riff<---play 3 times

End with Bridge


 /  slide up
 \  slide down
 h  hammer-on
 p  pull-off
 ~  vibrato
 +  harmonic
 x  Mute note
=============================================================================
Comments? Send me an e-mail!!!
Comments