Molotov - Amateur Chords & Tabs

 

Amateur Chords & Tabs

Molotov Chords & Tabs

Version: 2 Type: Bass Tab 0 ratings
1 star 2 stars 3 stars 4 stars 5 stars
comments

Amateur Bass Tab

   
-----------------------------------------------------------------------------
			    AMATEUR - Molotov
-----------------------------------------------------------------------------

Tabbed By : Ignacio "Coco" Vespoli
e-mail: cocofuhgawz@hotmail.com

Tuning: Normal
[ Tab from: http://www.guitartabs.cc/tabs/m/molotov/amateur_btab_ver_2.html ]
INTRO / VERSES / BRIDGES / EVERYTHING EXCEPT CHORUS
G|-----------|----------------------|
D|---------5-|----------------------|
A|----5------|--7\3.--7-----5-------|
E|--7---7----|----------(0)---(0)---|

CHORUS
G|----------------|
D|----------------|
A|----3--0--2-----|
E|--0----------0--|


 .  staccato
 /  slide up
 \  slide down
 h  hammer-on
 p  pull-off
 ~  vibrato
 +  harmonic
 x  Mute note
=============================================================================
Comments? Send an e-mail!!!
Comments