Molly Hatchet - Dreams Il Never See Chords & Tabs

 

Dreams Il Never See Chords & Tabs

Molly Hatchet Chords & Tabs

Version: 1 Type: Tab 0 ratings
1 star 2 stars 3 stars 4 stars 5 stars
comments

Dreams Il Never See Tab

   
Intro - D5 chord fading in on keyboards (or guitar)
(let ring and play fairly slow and deliberate)
E------------------------------------------------------------------|
B------------------------------------------------------------------|
G------------------------------------------------------------------|
D------5------4----2----4------------------------------------------|
A----5------5----3----5--------------------------------------------|
E------------------------------------------------------------------|

Play clean or light distortion- sounds good on middle or neck pick up
I cant really document the beat on this. But if you know the song you should
pick it up easily. Notes in () can be played also to fill it in a bit.
Second guitar plays harmonics.
E------------------------------------------------------------------|
B------------------------------------------------------------------|
G---(7)(7)-(7)(7)-(7)--(7)--(7)-(7)--(7)---------------------------|
D----5--5---5--5---4----4----4---4----5----------------------------|
A----5--5---5--5---5----5----5---5----5----------------------------|
E------------------------------------------------------------------|
[ Tab from: http://www.guitartabs.cc/tabs/m/molly_hatchet/dreams_il_never_see_tab.html ]
**********************************************************************
Chorus
    G5               F5
E--------------------------------------3-------3-----3-3-----------|
B--------------------------------------3-------3-----3-3-----------|
G------------------------------------------------------------------|
D------------------------------------------------------------------|
A---5-----------------3--------------------------------------------|
E---3-----------------1----------0-0-------0-0-----0---------------|

Guitar 2
E--------------------------------------12------12----12------------|
B--------------------------------------15b-----15----15b-----------|
G------------------------------------------------------------------|
D------------------------------------------------------------------|
A------------------------------------------------------------------|
E------------------------------------------------------------------|
***********************************************************************

    C                 Bb
E--------------------------------------5--------5-----5----5-------|
B--------------------------------------5--------5-----5----5-------|
G--------------------------------------3--------3-----3----3-------|
D---5-----------------3--------------------------------------------|
A---3-----------------1----------0-0-------0-0------0----0---------|
E------------------------------------------------------------------|
Guitar 2
E--------------------------------------15------15----15------------|
B--------------------------------------17b-----17b---17b-----------|
G------------------------------------------------------------------|
D------------------------------------------------------------------|
A------------------------------------------------------------------|
E------------------------------------------------------------------|
************************************************************************

Back to intro part. I will work on solo parts when I am near my guitar.

Enjoy
Dan
Comments