Molly - Wanna Be Chords & Tabs

 

Wanna Be Chords & Tabs

Molly Chords & Tabs

Version: 1 Type: Tab 0 ratings
1 star 2 stars 3 stars 4 stars 5 stars
comments

Wanna Be Tab

   
This is a local BIG band in GR, Michigan. They have some songs on
97.9 WGRD. They kick major.

Title: Molly - Wanna Be
Tabbed by: Dan Wall!
Tuning: Standard
Album: Sex Sells i think

s = slide

riff A
---------[2TIMES]-------|--[5TIMES]-------------------------------
------------------------|-----------------------------------------
----------7-7-S-9-S-12--|-----------------------------------------
---10-10--7-7-S-9-S-12--|--3-3-3----------------------------------
---10-10--5-5-S-7-S-10--|--3-3------------------------------------
---8--8-----------------|--1-1------------------------------------


---------[2TIMES]-------|--[5TIMES]-------------------------------
------------------------|-----------------------------------------
----------7-7-S-9-S-12--|-----------------------------------------
---10-10--7-7-S-9-S-12--|--3-3-3----------------------------------
---10-10--5-5-S-7-S-10--|--3-3------------------------------------
---8--8-----------------|--1-1------------------------------------


riff B
-[16TIMES]-|-[16TIMES]-|------------------------------------------
-----------|-----------|------------------------------------------
-----------|---10------|------------------------------------------
----10-----|---10------|------------------------------------------
----10-----|---8-------|------------------------------------------
----8------|-----------|------------------------------------------
   p.m.       p.m.

-[16TIMES]-|-[16TIMES]-|------------------------------------------
-----------|-----------|------------------------------------------
-----------|---10------|------------------------------------------
----10-----|---10------|------------------------------------------
----10-----|---8-------|------------------------------------------
----8------|-----------|------------------------------------------
   p.m.       p.m.

[ Tab from: http://www.guitartabs.cc/tabs/m/molly/wanna_be_tab.html ]
riff A
---------[2TIMES]-------|--[5TIMES]-------------------------------
------------------------|-----------------------------------------
----------7-7-S-9-S-12--|-----------------------------------------
---10-10--7-7-S-9-S-12--|--3-3-3----------------------------------
---10-10--5-5-S-7-S-10--|--3-3------------------------------------
---8--8-----------------|--1-1------------------------------------

riff B
-[16TIMES]-|-[16TIMES]-|------------------------------------------
-----------|-----------|------------------------------------------
-----------|---10------|------------------------------------------
----10-----|---10------|------------------------------------------
----10-----|---8-------|------------------------------------------
----8------|-----------|------------------------------------------
   p.m.       p.m.

riff B
-[16TIMES]-|-[16TIMES]-|------------------------------------------
-----------|-----------|------------------------------------------
-----------|---10------|------------------------------------------
----10-----|---10------|------------------------------------------
----10-----|---8-------|------------------------------------------
----8------|-----------|------------------------------------------
   p.m.       p.m.

------------------------------------------------------------------
------------------------------------------------------------------
------------------------------------------------------------------
---12---12-12-12-12-12-12-12---12-12---12-12-12-12----------------
---12---12-12-12-12-12-12-12---12-12---12-12-12-12----------------
---10---10-10-10-10-10-10-10---10-10---10-10-10-10----------------


------------------------------------------------------------------
------------------------------------------------------------------
---12---12-12-12-12-12-12---x-x-x-7-S-9-S-7-4-S-5---------------
---12---12-12-12-12-12-12---x-x-x-7-S-9-S-7-4-S-5---------------
---10---10-10-10-10-10-10---x-x-x-5-S-7-S-5-2-S-3---------------
------------------------------------------------------------------

-[16TIMES]-|-[16TIMES]-|
-----------|-----------|
-----------|---10------|
----10-----|---10------|  
Comments