Molesight - Tony Blair Is A Communist Chords & Tabs

 

Tony Blair Is A Communist Chords & Tabs

Molesight Chords & Tabs

Version: 1 Type: Tab 0 ratings
1 star 2 stars 3 stars 4 stars 5 stars
comments

Tony Blair Is A Communist Tab

Tony Blair Is A Communist 
Molesight

Guitar 1
---------7-6-6-6-7h-6h---
6-6-7h-6h-------------7-6
-------------------------
-------------------------
-------------------------
-------------------------

Guitar 2
[ Tab from: http://www.guitartabs.cc/tabs/m/molesight/tony_blair_is_a_communist_tab.html ]
6-6-7h-6h-------------7-6
---------7-6-6-6-7h-6h---
-------------------------
-------------------------
-------------------------
-------------------------


Just Repeat That Shit up until the chorus which is about 24 times,
Ill get the chorus up as soon as possible
Comments