Mojofly - Tumatakbo Chords & Tabs

 

Tumatakbo Chords & Tabs

Mojofly Chords & Tabs

Version: 2 Type: Tab 0 ratings
1 star 2 stars 3 stars 4 stars 5 stars
comments

Tumatakbo Tab

   
 Title: Tumatakbo
 Artist: Mojofly
 Album: Now
 Track no.: 7
 Elapsed Time: 4:14
 Transcribed by: Allan John G. Amisola
 Date/Time:  Tuesday, September 06, 2005 - 8:30 pm

 
          Naks basta lahat ng ginagawang theme song ng mga palabas sa tv
              dito mo na sa akin mahahanap kaya ... gud luck and gud rating po ha!!!
 

 [Standard Tuning] EBGDAe
 [Recommended chords]

   A9 - x02200    D9 - xx0230
   Dm - xx0231    D5 - x577xx
    E - 022100   Dm5 - x5776x 
  F#m - 244222   C#7 - x46464   D - xx0232
 

 [Verse]
    A9-E-D9
    A9-E-D9-D9
    A9-E-D9
    A9-E-D9-D9

 e|------0-------0---------0---------0-----|-----0---------0---------0-------0x-----|
 B|------0-------0---------3---------3-----|-----0---------0---------3-------3x-----|
 G|------2-------1---------2---------2-----|-----2---------1---------2-------2x-----| 2x
 D|------2-------2-------0---------0-------|-----2---------2-------0---------0x-----|
 A|----0---------2-------------------------|---0-----------2------------------------|
 E|------------0---------------------------|-------------0--------------------------|


 Laging bigo; laging sawi-sa pagibig
 Minamalas o kay sakit; may balat nga ba ako sa pwet
 Mabuti pa ang tindera sa aming kanto
 Nakakaingit tl ang sweet nila nang kanilang nobyo


 [Refrain]
    F#m-E-D5
    F#m-E-D5-Dm5

 e|--------------------------------------------------|
 B|--------------------------------------------------|
 G|--------------------------------7-7--7-7-7--------|
 D|----4-4--4-4-4----2-2--2-2-2----7-7--7-7-7--------|
 A|----4-4--4-4-4----2-2--2-2-2----5-5--5-5-5--------|
 E|----2-2--2-2-2----0-0--0-0-0----------------------|

 e|----------------------------------------------------|
 B|----------------------------------------------6>----|
 G|--------------------------------7-7--7-7-7----7>----|
 D|----4-4--4-4-4----2-2--2-2-2----7-7--7-7-7----7>----|
 A|----4-4--4-4-4----2-2--2-2-2----5-5--5-5-5----5>----|
 E|----2-2--2-2-2----0-0--0-0-0------------------------|


 Gusto ko lang; maranasan umibig tamaan ni kupido
 Gusto ko lang maranasan; tumibok muli ang puso ko 


 [Chorus]
    A-C#7-D-E
    A-C#7-D-E
    A-C#7-D-Dm

 Tumatakbo ang oras naiiwan na ako ng panahon
 Di na nagbago bawat araw pare-pareho
 Parang kahapon
 Tumatakbo ang oras.....


 [Verse]
    A9-E-D9
    A9-E-D9-D9
    A9-E-D9
    A9-E-D9-D9

 May birthday cake ka nga
 Ngunit wala naming kandila
 May christmas tree na malupet;
 Wala naman dekorasyon pansabit 


 [Refrain]
    F#m-E-D5
    F#m-E-D5-Dm5

 e|--------------------------------------------------|
 B|--------------------------------------------------|
 G|--------------------------------7-7--7-7-7--------|
 D|----4-4--4-4-4----2-2--2-2-2----7-7--7-7-7--------|
 A|----4-4--4-4-4----2-2--2-2-2----5-5--5-5-5--------|
 E|----2-2--2-2-2----0-0--0-0-0----------------------|

 e|----------------------------------------------------|
 B|----------------------------------------------6>----|
 G|--------------------------------7-7--7-7-7----7>----|
 D|----4-4--4-4-4----2-2--2-2-2----7-7--7-7-7----7>----|
 A|----4-4--4-4-4----2-2--2-2-2----5-5--5-5-5----5>----|
 E|----2-2--2-2-2----0-0--0-0-0------------------------|


 Sadyang ganyan ang aking buhay
 Walang kasing tamlay
 Ayoko sanang tumandang- nagiisa


 [Repeat Chorus]
[ Tab from: http://www.guitartabs.cc/tabs/m/mojofly/tumatakbo_tab_ver_2.html ]
 
 [Solo]
   A                     F#m
 e|---------------------------------------------|
 B|----10----10h12h14-10-----12----12h14h15-12--|
 G|-11----11--------------11----11--------------|
 D|---------------------------------------------|
 A|---------------------------------------------|
 E|---------------------------------------------|
    D                          E    
 e|------------------------------------------------------------|
 B|----10----10h12h14-10--10-10-------10-10-10h12h14-----------|
 G|-13----13--------------------11h13----------------9h11h13---|
 D|------------------------------------------------------------|
 A|------------------------------------------------------------|
 E|------------------------------------------------------------|

 e|-----------------------------------------------------|
 B|-------10h12h14-10-10-10-----12----12h14h15-12-12-12-|
 G|-9-9-9--------------------11----11-------------------|
 D|-----------------------------------------------------|
 A|-----------------------------------------------------|
 E|-----------------------------------------------------|

 e|----------------------------------------------------|
 B|----10----10h12h14----10-------------------10h12h14-|
 G|-13----13----------13-----9-9-9-9h11h13p11----------|
 D|----------------------------------------------------|
 A|----------------------------------------------------|
 E|----------------------------------------------------|


 [Bridge] - one stoke each chord then hard strumming on last chord (Dm)
     C#m-F#m-D
     C#m-F#m-D
     C#m-F#m-Dm

 Tatangapin nalang ba ang mapait na tadhana
 O kaya'y
 Tatangapin nalang ba na ako'y
 Sadyang hindi pinagpala
 Tigilan na ang drama;
 Punasan na ang luha

 Yeah!

 [Repeat Chorus 2x]


 [Outro]

 e|-------------------------------------------------|
 B|----10----10h12h14-10-10----12----12h14h15-12-12-|
 G|-11----11----------------11----11----------------|
 D|-------------------------------------------------|
 A|-------------------------------------------------|
 E|-------------------------------------------------|

 e|---------------------------------------------------|
 B|----10----10h12h14-10--10-10h12h14-14--10h12h14-14-|
 G|-11----11------------------------------------------|
 D|---------------------------------------------------|
 A|---------------------------------------------------|
 E|---------------------------------------------------|

 e|-------------------------------------------------|
 B|----10----10h12h14-10-10----12----12h14h15-12-12-|
 G|-11----11----------------11----11----------------|
 D|-------------------------------------------------|
 A|-------------------------------------------------|
 E|-------------------------------------------------|

 e|----------------------------------------------------------------------|
 B|----10----14p12-10h12-10-10-14p12-10h12-10-10-14p12-10h12-10-10h12-10-|
 G|-11----11-------------------------------------------------------------|
 D|----------------------------------------------------------------------|
 A|----------------------------------------------------------------------|
 E|----------------------------------------------------------------------|
 
 e|-------------------------------------------------|
 B|-14p12-10h12-10-10h12-10-----12----12h14h15------|
 G|--------------------------11----11---------------|
 D|-------------------------------------------------|
 A|-------------------------------------------------|
 E|-------------------------------------------------|

 e|-----------------------------------9h10p9--------------
 B|----10----10h12h14-10-10-----10-----------12-10-------10->
 G|-11----11-----------------11----11--------------11h13--
 D|-------------------------------------------------------
 A|-------------------------------------------------------
 E|-------------------------------------------------------

  Tumatakbo, tumatakbo, tuamtakbo naiiwan na ako (2x)
Comments