Mojofly - Tumatakbo Chords & Tabs

 

Tumatakbo Chords & Tabs

Mojofly Chords & Tabs

Version: 1 Type: Tab 0 ratings
1 star 2 stars 3 stars 4 stars 5 stars
comments

Tumatakbo Tab

   
May free chords pa 'to ah! 5 stars please! 
Mali lang siguro 'yung slot ng F#m; 'di ako sure sa chord na 
nandyan dapat eh!

Solo:
   A                     F#m
e|---------------------------------------------|
B|----10----10h12h14-10-----12----12h14h15-12--|
G|-11----11--------------11----11--------------|
D|---------------------------------------------|
A|---------------------------------------------|
E|---------------------------------------------|
   D                          E    
e|------------------------------------------------------------|
B|----10----10h12h14-10--10-10-------10-10-10h12h14-----------|
G|-13----13--------------------11h13----------------9h11h13---|
D|------------------------------------------------------------|
A|------------------------------------------------------------|
E|------------------------------------------------------------|

e|-----------------------------------------------------|
B|-------10h12h14-10-10-10-----12----12h14h15-12-12-12-|
G|-9-9-9--------------------11----11-------------------|
D|-----------------------------------------------------|
A|-----------------------------------------------------|
E|-----------------------------------------------------|

e|----------------------------------------------------|
B|----10----10h12h14----10-------------------10h12h14-|
G|-13----13----------13-----9-9-9-9h11h13p11----------|
D|----------------------------------------------------|
A|----------------------------------------------------|
E|----------------------------------------------------|
[ Tab from: http://www.guitartabs.cc/tabs/m/mojofly/tumatakbo_tab.html ]
Outro:
e|-------------------------------------------------|
B|----10----10h12h14-10-10----12----12h14h15-12-12-|
G|-11----11----------------11----11----------------|
D|-------------------------------------------------|
A|-------------------------------------------------|
E|-------------------------------------------------|

e|---------------------------------------------------|
B|----10----10h12h14-10--10-10h12h14-14--10h12h14-14-|
G|-11----11------------------------------------------|
D|---------------------------------------------------|
A|---------------------------------------------------|
E|---------------------------------------------------|

e|-------------------------------------------------|
B|----10----10h12h14-10-10----12----12h14h15-12-12-|
G|-11----11----------------11----11----------------|
D|-------------------------------------------------|
A|-------------------------------------------------|
E|-------------------------------------------------|

e|----------------------------------------------------------------------|
B|----10----14p12-10h12-10-10-14p12-10h12-10-10-14p12-10h12-10-10h12-10-|
G|-11----11-------------------------------------------------------------|
D|----------------------------------------------------------------------|
A|----------------------------------------------------------------------|
E|----------------------------------------------------------------------|
           ^-(pwede nyo 'tong isa-isahin or mag-legato)-^
e|-------------------------------------------------|
B|-14p12-10h12-10-10h12-10-----12----12h14h15------|
G|--------------------------11----11---------------|
D|-------------------------------------------------|
A|-------------------------------------------------|
E|-------------------------------------------------|

e|-----------------------------------9h10p9----------------...
B|----10----10h12h14-10-10-----10-----------12-10-------10-...
G|-11----11-----------------11----11--------------11h13----...
D|---------------------------------------------------------...
A|---------------------------------------------------------...
E|---------------------------------------------------------...
Comments