Mojofly - Scooterboy Chords & Tabs

 

Scooterboy Chords & Tabs

Mojofly Chords & Tabs

Version: 1 Type: Bass Tab 0 ratings
1 star 2 stars 3 stars 4 stars 5 stars
comments

Scooterboy Bass Tab

Song: Scooter Boy
Band: Mojofly

Intro:
|-----------------------------------------------|
|-----------------------------------------------|
|-------7----------7---------7-----------7------|
|---0-x--7-7---0-x---7---0-x---7-7---0-x---7----|

Verse:
|---------------------------------------------------------|
|---------------------------------------------------------|
|--7-----------7------------------7----------7------------|
|----7-0-7-7-----7-0-7-09-9-5-5----7-0-7-7----7-0-7-7----|

|---------------------------------------------------------------------|
|---------------------------------------------------------------------|
|-7---------7---------7---------7-----------------7---------7---------|
|---7-0-7-7---7-0-7-7---7-0-7-7---7-0-7-0-9-9-5-5---7-0-7-7---7-0-7-7-|

Refrain:
|----------------------------------------|
|----------------------------------------|
|----------------------------------------| 2x
|--7-7-7-0h5-777777-0h3-5555-0-3-5-0000--|

|-------------------------------------------|
|-------------------------------------------|
|-------------------------------------------|
|--7-7-7-0h5-777777-0h3-5555-333-222-0000---|
[ Tab from: http://www.guitartabs.cc/tabs/m/mojofly/scooterboy_btab.html ]
Chorus:
|------------------------------------------|
|------------------------------------------|
|---------------------------7-------7------| 2x
|--888888-101010101010--0-x---7-0-x---7-7--|

|------------------|
|------------------|
|------------------|
|--888888-10-0--0--|
 Scooter boy...

Verse 2: (same as verse 1)
Refrain
Chorus

Adlib:
|----------------------------------------------------------------|
|----------------------------------------------------------------|
|----------------------------------------------------------------|
|--0-0-0-0-0-0-8-8-8-10-10-10--0-0-0-0-0-0-8-8-8-8-8-8-10-10-10--|

|---------------------------------------------------------------------|
|---------------------------------------------------------------------|
|---------------------------------------------------------------------|
|-0-0-0-0-0-0-8-8-8-10-10-10-x-10-10-10-10-10-10-x-10-10-10-x-10-10-x-|

(guitar first, then...)

|---------------------------------------------------------|
|---------------------------------------------------------|
|--7-----------7------------------7----------7------------|
|----7-0-7-7-----7-0-7-09-9-5-5----7-0-7-7----7-0-7-0----|

Refrain
Chorus

Yan, okey na yan, kayo na lang yung bahala sa timing at pag may mali i-improvise niyo na lang...
Comments