Mojofly - Sa Uulitin Chords & Tabs

 

Sa Uulitin Chords & Tabs

Mojofly Chords & Tabs

Version: 1 Type: Tab 0 ratings
1 star 2 stars 3 stars 4 stars 5 stars
comments

Sa Uulitin Tab

   
 ---Updated---
 
 Title: Sa Uulitin
 Artist: Mojofly
 Album: Now
 Track no.: 2
 Elapsed Time: 4:17
 Transcribed by: Allan John G. Amisola
 E-Mail add: kogure_18spider@yahoo.com
 Date/Time:  Sat., Aug 27, 2005  -  5:45 pm
 Updated: Last Saturday, September 26, 2005  7:15 pm
 
 
        Sa uulitin ha...galingan n'yo nmn pag-rate kc magaling namn pag-tab ko eh!!!
           eto o... bumawi kayo d2, Gud luck nlng po!!!
 
 
 [Standard Tuning] EBGDAe
 [Recommended chords]
 
    C - x32010     F  133210   G - 320033
   Dm - xx0231    F5 - x33210
    G - 320033    Am - x02210 
   Fm - 133111    C9 - x32030
 
 
 [Intro]
    C-C9---
 
 e|--------------------------------------------------------------------|
 B|--------------------------------------------------------------------|
 G|----5~~----------7~~------------2~-----4~-----0~--------------------|
 D|--------------------------------------------------------------------|
 A|--------------------------------------------------------------------|
 E|--------------------------------------------------------------------|
 
 
 [Verse]
 
     C        C9      Am
  Hindi maipinta ang aking nadarama
     G       F5                           F
  Hindi maalis ang tamis ng mga tinginan, mga tinginan
      C           C9
  Mag-a-alas dose na pala
   Am
  Ayoko pang kumawala
        G         F5 
  Sa higpit ng mga yakap mo
   F
  Giliw ko
 
 
 [Pre-refrain]
 
       F          C          Dm         GM7                 F          C          Dm         Fm
 e|----------0----------0----------1----------3-----|-----------0----------0----------1------------------|
 B|--------1----------1----------3----------3-------|---------1----------1----------3----------1--3------|
 G|------2----------0----------2----------4---------|-------2----------0----------2----------2-----------|
 D|----3---------------------0----------5-----------|-----3---------------------0----------3-------------|
 A|---------------3---------------------------------|----------------3-----------------------------------|
 E|-------------------------------------------------|----------------------------------------------------|
 

 F           C           Dm
  Kung panaginip lamang ito
          G
  Ayoko na sanang magising
 F       C             Dm           Fm
  Tila isang paraiso tuwing ika'y kapiling 
 
  
[ Tab from: http://www.guitartabs.cc/tabs/m/mojofly/sa_uulitin_tab.html ]
 [Refrain]
 
 e|----(13)--15-15-15--13-13-13--12-12--13-13-13--12-12-12---------------------------------------|
 B|---------------------------------------------------------13-13--15-15-15-15-15-15-15--\\\----|
 G|----------------------------------------------------------------------------------------------| >> 2x
 D|----------------------------------------------------------------------------------------------|
 A|----------------------------------------------------------------------------------------------|
 E|----------------------------------------------------------------------------------------------|
           (This riff will be done shortly when the refrain begins, w/ light distortion)
 
  F    C       Dm
  Sa uulitin muli
             G    
  Makapiling ka sa bawa't sandali
  F        C                  Dm               G
  Hindi maitatanggi langit sa'yong mga mata at mga labi
  Am      Em        Dm-G
  Sana noon pa naranasan
      Am          Em      Dm         G  
  Hinding-hindi ipagpapalit kailan man
       F-C-Dm-G, F-C-Dm-G 
  Sa uulitin
 
 
 [Verse 2]
    C--Am--G-F5-F
    C-C9-Am--G-F5-F
 
  Naubusan na ng mga salita
  Nag-uusap na lang ang mga mata
  Nakakamangha
 
  Nagtritrip hanggang umaga
  Saan man mapunta kuntento na
  Basta't kasama ka
 
 
 [Pre-refrain]
 
        F          C          Dm         GM7                 F          C          Dm         Fm
  e|----------0----------0----------1----------3-----|-----------0----------0----------1-----------------|
  B|--------1----------1----------3----------3-------|---------1----------1----------3----------1--3------|
  G|------2----------0----------2----------4---------|-------2----------0----------2----------2-----------|
  D|----3---------------------0----------5-----------|-----3---------------------0----------3-------------|
  A|---------------3---------------------------------|----------------3-----------------------------------|
  E|-------------------------------------------------|----------------------------------------------------|
 
 F           C           Dm
  Kung panaginip lamang ito
           G
  Ayoko na sanang magising
 F       C             Dm           Fm
  Tila isang paraiso tuwing ika'y kapiling 
 
  
 [Refrain]
 
  e|----(13)--15-15-15--13-13-13--12-12--13-13-13--12-12-12---------------------------------------|
  B|---------------------------------------------------------13-13--15-15-15-15-15-15-15--\\\-----|
  G|----------------------------------------------------------------------------------------------| >> 4x
  D|----------------------------------------------------------------------------------------------|
  A|----------------------------------------------------------------------------------------------|
  E|----------------------------------------------------------------------------------------------|
            (This riff will be done shortly when the refrain begins, w/ light distortion)
 

  F    C       Dm
  Sa uulitin muli
             G    
  Makapiling ka sa bawa't sandali
  F        C                  Dm               G
  Hindi maitatanggi langit sa'yong mga mata at mga labi
  Am      Em        Dm-G
  Sana noon pa naranasan
      Am          Em      Dm         G  
  Hinding-hindi ipagpapalit kailan man
       F-C-Dm-G, F-C-Dm-G 
  Sa uulitin
 
  e|-----///-13---///15---\\\8------(4x)---------------------------------|
  B|---------------------------------------------------------------------|
  G|---------------------------------------------------------------------|
  D|---------------------------------------------------------------------|
  A|---------------------------------------------------------------------|
  E|---------------------------------------------------------------------|
      (This part is distorted and its sounds like a blowing whistle)
 
      F-C-Dm-G      F-C-Dm-G 
  Sa uulitin    sa uulitin...
  F-C-Dm-G
  Ooohhh....
  F-C-Dm-G
  Oohhhh....
  F-C-Dm-G
  ouuooohhhh...
 
 
 
        All Rights Reserved
           Copyright 2005
            All Tabs made by Allan John G. Amisola 
               Law prohibits all public performances and illegal disclaimers of 
                   this tab and has a specific punishment.
 
  #----------------------------------PLEASE NOTE---------------------------------#
  #This file is the author's own work and represents their interpretation of the #
  #song. You may only use this file for private study, scholarship, or research. #
  #------------------------------------------------------------------------------#
Comments