Mojofly - Mata Chords & Tabs

 

Mata Chords & Tabs

Mojofly Chords & Tabs

Version: 1 Type: Tab 0 ratings
1 star 2 stars 3 stars 4 stars 5 stars
comments

Mata Tab

e--------------------------7-7----7h8-7-----------|
b-8-8-8/10-8-7-----------------10---------8-7-7h8-|
g--------------7-7-7/9-7----------------7---------|
d------------------------9------------------------|
a-------------------------------------------------|
e-------------------------------------------------|
[ Tab from: http://www.guitartabs.cc/tabs/m/mojofly/mata_tab.html ]
e-----------------------------------------------------14-------15-|
b--------------------------------------12-13-12----------15-------|
g----12-12/14-12-11-----------11-12-14-------------12-------12----|
d-12--------------------12h14-------------------12----------------|
a-----------------------------------------------------------------|
e-----------------------------------------------------------------|

cools!-ness!
Comments