Mojofly - Mata Acoustic Chords & Tabs

 

Mata Acoustic Chords & Tabs

Mojofly Chords & Tabs

Version: 2 Type: Tab 0 ratings
1 star 2 stars 3 stars 4 stars 5 stars
comments

Mata Acoustic Tab

   
Hi Guyz im Rc member me ng DisBand [from Claret] 1st tab na ginwa kow hope u like it =)

           
 Kamusta na nanjan ka pa ba

        G                    D
                          
E---------3-----3-----------2---------------|
B-----3-----3-----------3-----3---3---------|
G-------0-----0-----------2-----2-----------|
D---------------------0---------------------| 
A-------------------------------------------|
E--3----------------------------------------|

         Am                   C
                          
E---------3------------------0--------------|
B-----1-----3---3--------1-----1---1--------|
G-------2-----0------------2-----2----------|
D-------------------------------------------|
A--0------------------3---------------------|
E-------------------------------------------|






Wala na yatang ibang magagawa kundi tumawa
Nanjan pa ba mga alalala
Ang tanging bagay na naiwan sa ating dalawa

          G                   D 
                          
E---------3-----------------2---------------|
B-----3-----3---3-------3-----3---3---------|
G-------0-----0-----------2-----2-----------|
D---------------------0---------------------| 
A-------------------------------------------|
E--3----------------------------------------|

         Am                   C
                          
E---------3------------------0--------------|
B-----1-----3---3--------1-----1---1--------|
G-------2-----0------------2-----2----------|
D-------------------------------------------|
A--0------------------3---------------------|
E-------------------------------------------|





Wag ng paikutin ang isa't isa
Lahat ng bagay ay malinaw na
Di na rin kailangan pagpilitan pa

         Em                   C
     <-strum once                    
E--0------0------------------0--------------|
B--0--0-----0---0--------1-----1---1--------|
G--0----0-----0------------2-----2----------|
D--2----------------------------------------|
A--2------------------3---------------------|
E--0----------------------------------------| 

      G                    D
                          
E---------3-----------------2---------------|
B-----3-----3---3-------3-----3---3---------|
G-------0-----0-----------2-----2-----------|
D---------------------0---------------------|
A-------------------------------------------|
E--3----------------------------------------|


Di mo na kinakailangan pang magsalita

   Em             C               D
   one strum each, strum hard on D                      
E--0--------------0---------------2---------|
B--0--------------1---------------3---------|
G--0--------------0---------------2---------|
D--2--------------2---------------x---------|
A--2--------------3---------------x---------|
E--0--------------0---------------x---------|




Nakita ko na lahat ditto pinahihiwatig ng mata mo
Salamat na lamang sa iyo

         G                    D
                          
E---------3-----3-----------2-----2--------|
B-----3-----3-----------3-----3------------|
G-------0-----0-----------2-----2----------|
D---------------------0--------------------|
A------------------------------------------|
E--3---------------------------------------|
[ Tab from: http://www.guitartabs.cc/tabs/m/mojofly/mata_acoustic_tab_ver_2.html ]
      Am                   C
                          
E---------3-----3------------0-----0-------|
B-----1-----3------------1-----1-----------|
G-------2-----0------------2-----2---------|
D------------------------------------------|
A--0------------------3--------------------|
E------------------------------------------|


Solo: [may violin]


      Em                   D                     Cx2          
                          
E---------0-----0------------2-----2------------0-----0----|
B-----0-----0------------3-----3------------1-----1--------|
G-------0-----0------------2-----2------------0-----0------|
D---------------------0------------------------------------|
A--2-------------------------------------3-----------------|
E----------------------------------------------------------|




Kamusta na nanjan ka pa ba
Wala na yatang ibang magagawa kundi tumawa
Nanjan pa ba mga alalala
Ang tanging bagay na naiwan sa ating dalawa

    G                    D
                          
E---------3-----3-----------2-----2--------|
B-----3-----3-----------3-----3------------|
G-------0-----0-----------2-----2----------|
D---------------------0--------------------|
A------------------------------------------|
E--3---------------------------------------|

      Am                   C
                          
E---------3-----3------------0-----0-------|
B-----1-----3------------1-----1-----------|
G-------2-----0------------2-----2---------|
D------------------------------------------|
A--0------------------3--------------------|
E------------------------------------------|




Wag ng paikutin ang isa't isa
Lahat ng bagay ay malinaw na
Di na rin kailangan pagpilitan pa

         Em                   C
     <-strum once                    
E--0------0------------------0--------------|
B--0--0-----0---0--------1-----1---1--------|
G--0----0-----0------------2-----2----------|
D--2----------------------------------------|
A--2------------------3---------------------|
E--0----------------------------------------| 

      G                    D
                          
E---------3-----------------2---------------|
B-----3-----3---3-------3-----3---3---------|
G-------0-----0-----------2-----2-----------|
D---------------------0---------------------|
A-------------------------------------------|
E--3----------------------------------------|


Di mo na kinakailangan pang magsalita

   Em             C               D
   one strum each, strum hard on D                      
E--0--------------0---------------2---------|
B--0--------------1---------------3---------|
G--0--------------0---------------2---------|
D--2--------------2---------------x---------|
A--2--------------3---------------x---------|
E--0--------------0---------------x---------|



Nakita ko na lahat ditto pinahihiwatig ng mata mo
Salamat na lamang sa iyo

         G                    D
                          
E---------3-----3-----------2-----2--------|
B-----3-----3-----------3-----3------------|
G-------0-----0-----------2-----2----------|
D---------------------0--------------------|
A------------------------------------------|
E--3---------------------------------------|

      Am                   C
                          
E---------3-----3------------0-----0-----3-|
B-----1-----3------------1-----1---------3-|
G-------2-----0------------2-----2-------0-|
D----------------------------------------0-|
A--0------------------3------------------2-|
E----------------------------------------3-|

un lng po tnx!! =)
kung may mali ausin ko n lng nxt time =)
Comments