Mojofly - Mata Acoustic Chords & Tabs

 

Mata Acoustic Chords & Tabs

Mojofly Chords & Tabs

Version: 1 Type: Tab 0 ratings
1 star 2 stars 3 stars 4 stars 5 stars
comments

Mata Acoustic Tab

   
Tabbed by: Christopher Rafael

(^_~ Greetings s mga kabanda q at s mga tropets q!!... mabuhay ang bandang
KURIKACHOO....mabuhay ang tropang T-10.. RoCk oN mGa ToL!! ~_^)

Verse/Chorus:

    G                  D
E---------3------------------2-----------|
B-----3-----3---3--------3-----3---3-----|
G---0---0-----0--------2---2-----2-------|
D----------------------------------------|
A----------------------------------------|
E----------------------------------------|
      C9                    C
E---------3-------------------0----------|
B-----3-----3---3---------1-----1---1----|
G---0---0-----0---------0---0-----0------|
D----------------------------------------|
A----------------------------------------|
E----------------------------------------|
(pakinggan nio n lng ung song pra mlaman nio kng ilang beses nio i play ung part n 2)

Refrain:
[ Tab from: http://www.guitartabs.cc/tabs/m/mojofly/mata_acoustic_tab.html ]
   Em                 D                   C9                   C
E--------0-----------------2------------------3------------------1---------|
B----0-----0----0------3------3----3------3-----3----3-------1------1----1-|
G--0---0------0------2---2------2-------0---0------0-------0---0-------0---|
D--------------------------------------------------------------------------|
A--------------------------------------------------------------------------|
E--------------------------------------------------------------------------|
   Em           D           
E--0--p---------2--p--------2---------------|
B--0--a---------3--a--------3---------------|
G--0--u---------2--u--------2-(strum 16x)---|
D--2--s---------0--s--------0---------------|
A--2--e---------0--e--------0---------------|
E--0------------x-----------x---------------|

(e2 n ung tab ng buong song.. pakinggang nio n lng pra  tyming nio...)

*(paxenxa n kng ala i2ng lyrics mga tol... mejo minadali q kc i2 eh.. pero sure aqng
kuha to!!... i enjoy nio n lng!!)
Comments