Mojofly - Bato Chords & Tabs

 

Bato Chords & Tabs

Mojofly Chords & Tabs

Version: 1 Type: Bass Tab

Bato Bass Tab

From SMCB:
Tabbed by :Ron-bass
                  Sept-lead
                  Najee-keyboard
                  William-drums
                  Patricia-vocal
                  Chanel-vocal
                  Armand-vocal he..heh...
                  Melissa-vocal

Intro:(2x)

|---------------------------------------------|
|---------------------------------------------|
|--0--2--4--0--2--4-4---0--2--4--0--2--44-----|
|---------------------------------------------|

|---------------------------------------------|
|--0--2--4--0--2--4-4---0--2--4--0--2--44-----|
|---------------------------------------------|
|---------------------------------------------|

Verse:(4x)

|----------------------------------------------|
|------------------------- --------------------|
|--0-0-0-0-0-0-0-0-0--5-5-5-5-5-5-5-5----------|
|----------------------------------------------|

Refrain:(3x)
|------------------------------------|
|------------------------------------|
|-----------------5-5-5-5-5-5--------|
|--0--0----2--2----------------------|


Chorus:
(2x)
G|-----------------------------------------------|
D|-----------------------------------------------|
A|------------ 7-7-7-7-7--9-9-9-9-9--5---5-5-----|
E|--5-5-5-5-5------------------------------------|

(2x)
G|----------------------------------|
D|----------------------------------|
A|--9-9-9--7-7--5---5---------------|
E|----------------------------------|

Interlude:
|---------------------------------------------|
|---------------------------------------------|
|--0--2--4--0--2--4-4---0--2--4--0--2--44-----|
|---------------------------------------------|
[ Tab from: http://www.guitartabs.cc/tabs/m/mojofly/bato_btab.html ]
|---------------------------------------------|
|--0--2--4--0--2--4-4---0--2--4--0--2--44-----|
|---------------------------------------------|
|---------------------------------------------|

Verse II:(4x)

|----------------------------------------------|
|------------------------- --------------------|
|--0-0-0-0-0-0-0-0-0--5-5-5-5-5-5-5-5----------|
|----------------------------------------------|

Refrain:(3x)
|------------------------------------|
|------------------------------------|
|-----------------5-5-5-5-5-5--------|
|--0--0----2--2----------------------|

Chorus:
(2x)
|-----------------------------------------------|
|-----------------------------------------------|
|------------ 7-7-7-7-7--9-9-9-9-9--5---5-5-----|
|--5-5-5-5-5------------------------------------|

(2x)
|----------------------------------|
|----------------------------------|
|--9-9-9--7-7--5---5---------------|
|----------------------------------|

Bridge:
(2x)
|----------------------------------|
|----------------------------------|
|--7-7-7-7-7--5-5-5-5-5------------|
|----------------------------------|

(parang lobong lumipad)
|-----4-------4------4-----4----------|
|-------------------------------------|
|-------------------------------------|
|-------------------------------------|

Chorus:
(2x)
|-----------------------------------------------|
|-----------------------------------------------|
|------------ 7-7-7-7-7--9-9-9-9-9--5---5-5-----|
|--5-5-5-5-5------------------------------------|

(2x)
|-----------------------------------------|
|-----------------------------------------|
|--9-9-9--7-7--5---5--5-5-5-5-5-5-5-------|
|-----------------------------------------|


-End-

sana magustuhan nyo........