Moist - Silver Chords & Tabs

 

Silver Chords & Tabs

Moist Chords & Tabs

Version: 1 Type: Tab 0 ratings
1 star 2 stars 3 stars 4 stars 5 stars
comments

Silver Tab

This is a pretty cool and very easy song.  When you bend the A, 
start with the string bent and release.  He messes with that little 
chord at the end of the main riff, and thats about it.  It's my first
tab, so if I screwed up let me know at mralex85@san.rr.com.  

Main Riff:
e|----------------------------------------------
b|---------------------------------------5------
G|---------------5-7--------------5/7\5-5-5-----
D|b7--5-7----b7--5-7----b7--5-7---5/7\5---------
A|----5-7--------3-5--------5-7-----------------
E|----3-5-------------------3-5-----------------



[ Tab from: http://www.guitartabs.cc/tabs/m/moist/silver_tab.html ]
Chorus:
e|--------------------------------------------------------
b|--------------------------------------------------------
G|-7--7--7-7-7-------------------7--7--7-7-7--------------
D|-7--7--7-7-7----7--7--7-7-7----7--7--7-7-7----3-3--5-5--
A|-5--5--5-5-5----7--7--7-7-7----5--5--5-5-5----3-3--5-5--
E|----------------5--5--5-5-5-------------------1-1--3-3--


Not really sure about this part

Interlude:
e|--------------------------------------------------------10b------
b|---------------------------------------------------10h12---------
G|-7/5-5-5/3-3-3/2-2-2/0-0-0\2-2-2\3-3-3\5-5-5\7----9--------------
D|-----------------------------------------------------------------
A|-----------------------------------------------------------------
E|-----------------------------------------------------------------

Enjoy.

Comments