Moist - Resurrection Chords & Tabs

 

Resurrection Chords & Tabs

Moist Chords & Tabs

Version: 1 Type: Tab 0 ratings
1 star 2 stars 3 stars 4 stars 5 stars
comments

Resurrection Tab

   
Song:Resurrection
Artist:Moist
Tabbed by: Conart_cry@yahoo.com (spare me the spam and just comment)

Big fan of the song and the band

Riff A
   Gsus2                Ebsus2             
E|-------------------------------------------
B|--------10-------10---------6--------6-----
G|-------------------------------------------
D|----12-----12------------8-----8-----------
A|-10-----------10------6-----------6--------
E|-------------------------------------------

   Csus2            C#sus2      Csus2
E|--------------------------------------------
B|-------3--------3--------4-----------3------
G|--------------------------------------------
D|----5-----5-----------6-----------5-----5---
A|--3----------3-----4--------4--3------------
E|--------------------------------------------

Riff A1
    G                 Eb
E|----------------------------------------
B|----------------------------------------
G|----0----0----0--------0----0----0------
D|--5---5----5----5-----------------------
A|--------------------6----6-----6--------
E|----------------------------------------
   Csus2             C#sus2  Csus2
E|----------------------------------------
B|-------------------4-4-4-/-3--3--3--3---
G|----0----0----0----6-6-6-/-5--5--5--5---
D|-------------------6-6-6-/-5--5--5--5---
A|--3----3----3------4-4-4-/-3--3--3--3---
E|----------------------------------------


Riff B (Do with the normal time, its not as quickly as it looks)
    G    Eb  C    C# C      G...etc
E|----------------------|--------
B|----------------------|--------
G|----------------------|--------
D|--7/9--8---5/7--8--7--|--(5)--- Do the () in the end
A|----------------------|--------
E|----------------------|--------

Intro: Riff A twice then do with the vocals

Verse 1 & 3 (Do with Riff B 3rd verse)
I've been drowned out by the rain
Still I'm wishing I could stay
But I'm sorry my old friend I got to leave you once again
And despite what I might say
I measure pleasure by the pain
Measure pleasure by the twisting of the metal in the vain
(with Riff A1)
And it might be very hard can't be more then what we are
                    (C5 C#5 C5 D5 Do this 3rd verse)   
Can't more till it's over!!
[ Tab from: http://www.guitartabs.cc/tabs/m/moist/resurrection_tab.html ]
(1st and 3rd Chorus)
E
Here Comes the resurrection
G
Everybody's got to die from something
C                                        Am(go with time)
Never quite enough to leave you when you go
E
I saw you strip my babies
G
Animal the way you cut them might be
C                             Am
Animal the way I cut you from below (Got to outro 3rd time)

Back to Riff A (no Riff A1 at the last)
So you goad me into spite
It's the cruelty that you like
It's the waiting for the one thing that you never could define
Feel the longing just because
Emasculates the ones you love
Have to wait till it's over!

(2nd Chorus do 1st Chorus chords)
We are the less then mighty
Never was a way I thought it could be
Never quite enough to leave you when you go
I saw you strip my babies
Animal the way I cut them might be
C                             A7 B7, A7 B7
Animal the way I cut you from below!

Guitar solo, do Chorus chords (If it sounds fucked up these are like
the guidlines for it figure it out)
 Bend 1/2 All () are bent                                  ~~~~~~
E|----------------------------------------------------------------
B|--------------------------------------------------12------------
G|--(9)-----9--11--9--(11)--11--9--11--9--(11)--9--------9--------
D|----------------------------------------------------------------
A|----------------------------------------------------------------
E|----------------------------------------------------------------

E|---------------------------------------------------------------
B|------------------------------------------12------12-------12--
G|--(11)--9---(11)--9--11----9--(11)---9-11----9-11-----9-11-----
D|---------------------------------------------------------------
A|---------------------------------------------------------------
E|---------------------------------------------------------------

(The outro do with chorus chords)
And if anger is the ending
of the things that we've become
For the mother and the father
and the sister and the son
Through the shallow without wanting
Realizations to mistakes
Is the ugly of the old things that we've become
to replace
I will control x 7(Do this with guitar solo)
I will control
Then at the end do Riff B with the bass doing the root notes
or (heehee)

G|-------------------------------------------------
D|--5-5-5-5-5-5------------------------------------
A|---------------6-6-6-6-6-6--3-3-3-3--44-33-------
E|--------------------------------------------333--

Rythm chords:(Low to high)
E:  022xxx
G:  3554xx
C:  x355xx
Am: 5775xx
A7: 5756xx
B7: 7978xx
D5: x577xx
Comments