Mogwai - Punk Rock Chords & Tabs

 

Punk Rock Chords & Tabs

Mogwai Chords & Tabs

Version: 2 Type: Tab

Punk Rock Tab

“Punk Rock” - Mogwai

SONG: Punk Rock
BAND: Mogwai
ALBUM: Come On Die Young
TRANSCRIBED BY: janesaddiction
TUNING: standard

Guitar & Bass aranged for 1 guitar.

“f|” rows indicate which left hand fingers should be used. It’s a little bit
difficult the way I play it, but it allows bass notes last longer.
1 – index finger
2 – middle finger
3 – ring finger
4 – little finger

Have fun..   


f|___________________________3__1__3__1__3__1__4__1
f|______2__1__2_____2__1__2__4__2__4__2__4__2__3__2             


E|---------------------------7--5--7--5--7--5--8--5------|
B|---------5-----------5---------------------------------|
G|-------------------------------------------------------|
D|------7-----7-----7-----7-----7-----7-----7-----7------|
A|---0-----------0-----------8-----8-----8-----8---------|
E|-------------------------------------------------------|


f|___________________________4__3__4__3__4__3__4__3
f|______1__4__1_____1__4__1__2__1__2__1__2__1__2__1             

[ Tab from: http://www.guitartabs.cc/tabs/m/mogwai/punk_rock_tab_ver_2.html ]
E|------------------------------3-----3-----3-----3------|
B|---------5-----------5-----5-----5-----5-----5---------|
G|------2-----2-----2-----2-----2-----2-----2-----2------|
D|---------------------------3-----3-----3-----3---------|
A|---0-----------0---------------------------------------|
E|-------------------------------------------------------|


f|_________1_________________3__1__3__1__3__1__4__1
f|______2__1__2_____3__2_____4__2__4__2__4__2__3__2


E|---------5-----------------7--5--7--5--7--5--8--5------|
B|---------5--------8------------------------------------|
G|-•-----------------------------------------------------|
D|-•----7-----7--------7--------7-----7-----7-----7------|
A|---0-----------0--------0--8-----8-----8-----8---------|
E|-------------------------------------------------------|


f|___________________________4__3__4__3__4__3__4__3
f|______1__4__1_____1__4__1__2__1__2__1__2__1__2__1


E|------------------------------3-----3-----3-----3------|
B|---------5-----------5-----5-----5-----5-----5---------|
G|------2-----2-----2-----2-----2-----2-----2-----2----•-|
D|---------------------------3-----3-----3-----3-------•-|
A|---0-----------0---------------------------------------|
E|-------------------------------------------------------|