Mogwai - Punk Rock Chords & Tabs

 

Punk Rock Chords & Tabs

Mogwai Chords & Tabs

Version: 1 Type: Tab 0 ratings
1 star 2 stars 3 stars 4 stars 5 stars
comments

Punk Rock Tab

Artist: Mogwai

Song: Punk Rock

Tabbed by Nick Carrasco

nickdescending@yahoo.com
feekleceo@yahoo.com

Could'nt find the tab to this song, so i tabbed it. Enjoy!


p = Pull Off


Guitar

Intro

E|---------7-5-7-5-7-5-8-5-----------------------------------|
B|--5---5----------------------------------------------------|
G|-----------------------------------------------------------|
D|-----------------------------------------------------------|
A|-----------------------------------------------------------|
E|-----------------------------------------------------------|

Switches Alot just listen to the song and you'll get it.
[ Tab from: http://www.guitartabs.cc/tabs/m/mogwai/punk_rock_tab.html ]
E|-----------3---3---3--0-------5---3-----7-5-7-5-7-5-8-5----|
B|--5--5--5----5---5---------5----5----5---------------------|
G|-----------------------------------------------------------|
D|-----------------------------------------------------------|
A|-----------------------------------------------------------|
E|-----------------------------------------------------------|

E|---5---3------3---3---3-0----------------------------------|
B|-5----5---5--5---5---5-------------------------------------|
G|-----------------------------------------------------------|
D|-----------------------------------------------------------|
A|-----------------------------------------------------------|
E|-----------------------------------------------------------|


Bass

Stays the same throughout the song.

E|------------------------------------------------|
B|------------------------------------------------|
G|----------------pp----pp------------------------|
D|-----7----7-----77----77------------------------|
A|--0----0-----8------8---------------------------|
E|------------------------------------------------|
Comments