Mogwai - 2 Wrongs Make 1 Right Chords & Tabs

 

2 Wrongs Make 1 Right Chords & Tabs

Mogwai Chords & Tabs

Version: 1 Type: Bass Tab 0 ratings
1 star 2 stars 3 stars 4 stars 5 stars
comments

2 Wrongs Make 1 Right Bass Tab

   
----------------------------------------------------------------------------
			  2 WRONGS MAKE 1 RIGHT - Mogwai
----------------------------------------------------------------------------

Tabbed By : Stephen Healy
e-mail: steeeeeve13@hotmail.com

Tuning: Standard Tuning EADG

Very sorry but i only the root notes as mogwai bassist very often noodles around all
over the place. But i have worked some of them out

Intro
G|------------------------------------------------------------------------|
D|------------------------------------------------------------------------|
A|---------------------------------------5--------5--------2--------2-----|
E|-5---------5--------2---------2-----------------------------------------|
[ Tab from: http://www.guitartabs.cc/tabs/m/mogwai/2_wrongs_make_1_right_btab.html ]
Then goes onto something like...
G|----------------9-7-5---------------------------------------------------|
D|------------------------------------------------------------------------|
A|-------------------------------------------5----5----5----5----2----2---|
E|-5----5----5-----------2----2----2----2---------------------------------|

G|------------------------------------------------------------------------|
D|------------------------------------------------------------------------|
A|-2---0-2--4-------------------------------------------------------------|
E|-------------5----------------------------------------------------------|

not much help but itll give you some idea

| /  slide up
| \  slide down
| h  hammer-on
| p  pull-off
| ~  vibrato
| +  harmonic
| x  Mute note
============================================================================
Comments