Mofos - Bogan Suicide Chords & Tabs

 

Bogan Suicide Chords & Tabs

Mofos Chords & Tabs

Version: 1 Type: Tab 0 ratings
1 star 2 stars 3 stars 4 stars 5 stars
comments

Bogan Suicide Tab

   
----------------------------------------------------------------------------
			     Bogan Suicide - The Mofos
----------------------------------------------------------------------------
Tabbed by: Sami
Email: lil_punker41@hotmail.com

Tuning: Standard

This is an awsum song by an awsum not so well known stoner-bogan band! ENJOI!   

   x2 Verses and second last chorus
e|-------------------------------------------------------------------------|
B|--------0--------------0--------0--------------0--------0----------------|
G|------0---0---0------0--------0---0---0------0--------0------------------|
D|----2-------2------2--------2-------2------0--------0--------------------|
A|--2--------------3--------3--------------3--------2----------------------|
E|-------------------------------------------------------------------------|
[ Tab from: http://www.guitartabs.cc/tabs/m/mofos/bogan_suicide_tab.html ]
    Chorus (listen to cd to get rhythm)
e|---0---------0-----------------------------------------------------------|
B|---0---------0-----------------------------------------------------------|
G|---0---------0-----------------------------------------------------------|
D|---x---------2-----------------------------------------------------------|
A|---3---------2-----------------------------------------------------------|
E|---x---------0------------------------------------------------------------|

    Bridge (again listen to cd for rhythm)
e|---0---0---0---0---0---0---0---0----0---0---0---0------------------------|
B|---0---0---0---0---0---0---0---0----0---0---0---0------------------------|
G|---0---0---0---0---0---0---0---0----0---0---0---0------------------------|
D|---x---x---x---x---x---x---x---x----x---x---x---x------------------------|
A|---3---5---7---6---3---5---7---12---3---5---7---6------------------------|
E|---x---x---x---x---x---x---x---x----x---x---x---x------------------------|

n thatz it folx! short n sweet but itz still a sick song! 


| /  slide up
| \  slide down
| h  hammer-on
| p  pull-off
| ~  vibrato
| +  harmonic
| x  Mute note
============================================================================
Comments