Moffatts - Spy Chords & Tabs

 

Spy Chords & Tabs

Moffatts Chords & Tabs

Version: 1 Type: Bass Tab 0 ratings
1 star 2 stars 3 stars 4 stars 5 stars
comments

Spy Bass Tab

I?m pretty sure this is accurate. If not, e-mail me at:
magic_metal_strings@hotmail.com

G----------------0-----0---------------0- {----------\---1---3-3-3------|
D-------------------3----------0---3----- {Repeat\----------------------|
A---------------------------3--------------{----------\-----------------|
E---3-3-3-3------------------------------{----------\-------------------|
[ Tab from: http://www.guitartabs.cc/tabs/m/moffatts/spy_btab.html ]
G--------------2--0--2---------0--2\---3----5-5-5--------|
D---------------------------0-2------\-------------------|
A-0-0-0-0--------------------------\---------------------|
E-------------------------------------\------------------|

G-----------------3---1--3--------------1--3 -\----4---6-6-6-----------|
D------------------------------1---3---------- -\----------------------|
A---1-1-1-1--------------------------------- -\------------------------|
E----------------------------------------------- -\--------------------|


G--------------4--2---4-------------------2---4--\-----5--7-7-7---------|
D-------------------------------2--4---------------\--------------------|
A---2-2-2-2---------------------------------------\---------------------|
E----------------------------------------------------\------------------|
Comments