Moffats - Misery Chords & Tabs

 

Misery Chords & Tabs

Moffats Chords & Tabs

Version: 1 Type: Tab 0 ratings
1 star 2 stars 3 stars 4 stars 5 stars
comments

Misery Tab


MISERY by The Moffats


Verse and Intro

lead                  rythm  
|------------------|  |-----------------|
|-5-5-5-5-5-5-5-4--|  |-----------------|
|------------------|  |-9-9-9-9-9-9-9/8-|
|------------------|  |-x-x-x-x-x-x-x/x-|
|------------------|  |-7-7-7-7-7-7-7/6-|
|------------------|  |-----------------|


Pre-chorus
[ Tab from: http://www.guitartabs.cc/tabs/m/moffats/misery_tab.html ]
|------------------------| |---------------|
|-(4X)-----(4x)----------| |---------------|
|--6--(4x)--9---(4x)-----| |-(7x)---pause--| 
|--6--5-----9----9-------| |--4-----5------|
|--4--5-----7----9-------| |--4-----5------|
|-----7----------7-------| |--2-----7------|


Chorus
|--------------| here r the chords.
|--------------| u can figure out the timing,
|--1--4--4--2--| trust me. 
|--2--4--4--2--| (8X) each chord i think
|--2--2--6--2--|
|--------------|



notes:
* i think its really very accurate. the time, i put it there just so that
u have an idea how to play it. listen to the song for poper timing.
* if any1 has any idea how the solo goes or have any questions email me at
  Rezarecta33@hotmail.com

  THANX  ENJOY!!!!


Comments