Moe - Okayalright Chords & Tabs

 

Okayalright Chords & Tabs

Moe Chords & Tabs

Version: 1 Type: Bass Tab 0 ratings
1 star 2 stars 3 stars 4 stars 5 stars
comments

Okayalright Bass Tab

Okayalright - moe.
tabbed by wendel

Intro
G------------------------------|
D------------------------------|
A-3-1---1---1------------------|
E-----3---1---1----------------|
[ Tab from: http://www.guitartabs.cc/tabs/m/moe/okayalright_btab.html ]
Verse
G------------------------------|
D------------------------------|
A-----3-3----------------------|
E-1-1-----3-3------------------|

Chorus
G----------------------------|
D----------------------------|
A-----3-3--------------------|
E-1-1-----3-3-3-3------------|

Bridge/Solo
G----------------------------------|
D----------------------------------|
A---2-5-----5-3p1---1---1----------|
E-3-----2-5-------3---1---1--------|
Comments