Moe - Kids Chords & Tabs

 

Kids Chords & Tabs

Moe Chords & Tabs

Version: 2 Type: Tab 0 ratings
1 star 2 stars 3 stars 4 stars 5 stars
comments

Kids Tab

   
-------------------------------------------------------------------------------
			     Kids - moe.
-------------------------------------------------------------------------------
Tabbed by: jeff shane	
Email: jobob2626@yahoo.com

Tuning: standard

Intro:
		    h  h                               h  h          

e|-12-12-12---------------9----9------12-12-12-------------------------------|
B|----------12-10-9-10-12---12-----------------12-10-9-10-12-----------------|
G|-----------------------------------------------------------9---------------|
D|---------------------------------------------------------------------------|
A|---------------------------------------------------------------------------|
E|---------------------------------------------------------------------------|


Verse:

e|---------------------------------------------------------------------------|
B|--9--------10---9----------------------------------------------------------|
G|--9---------9---9----------------------------------------------------------|
D|--9--------11---9----------------------------------------------------------|
A|-11------------11----------------------------------------------------------|
E|---------------------------------------------------------------------------|
   heeeeey   ja-son   etc.

[ Tab from: http://www.guitartabs.cc/tabs/m/moe/kids_tab_ver_2.html ]
e|-16-19-17-16----17-16----------16-16---------------------------------------|
B|-------------19-------17~--------------------17-17\------------------------|
G|-------------------------------------18~-16--------------------------------|
D|---------------------------------------------------------------------------|
A|---------------------------------------------------------------------------|
E|---------------------------------------------------------------------------|
  Do you re-mem-ber that day   when we were hanging out, etc.


Chorus:
    E         A     B       E
e|---------------------------------------------------------------------------|
B|-9-9-9--X--5-5--7-7-7--X-9-9-----------------------------------------------|
G|-9-9-9--X--6-6--8-8-8--X-9-9-----------------------------------------------|
D|-9-9-9--X--7-7--9-9-9--X-9-9-----------------------------------------------|
A|-7-7-7-----7-7--9-9-9----7-7-----------------------------------------------|
E|-----------5-5--7-7-7------------------------------------------------------|
  kids will tryto run you over   etc


Solo:  (chords in the background are just A>B)
      
 						  h  p
e|-------9-11-/12-11-9-------------11-12-14-12-11-12-11----------------------|
B|----10---------------10~------12----------------------12~------------------|
G|--9-------------------------11---------------------------------------------|
D|---------------------------------------------------------------------------|
A|---------------------------------------------------------------------------|
E|---------------------------------------------------------------------------|

e|-------9-11-/12-11-9-------------------------------------------------------|
B|----10----------------10--12~~~--------------------------------------------|
G|--9------------------------------------------------------------------------|
D|---------------------------------------------------------------------------|
A|---------------------------------------------------------------------------|
E|---------------------------------------------------------------------------|



| /  slide up
| \  slide down
| h  hammer-on
| p  pull-off
| ~  vibrato
| +  harmonic
| x  Mute note
===============================================================================
Comments