Moe - Kids Chords & Tabs

 

Kids Chords & Tabs

Moe Chords & Tabs

Version: 1 Type: Tab 0 ratings
1 star 2 stars 3 stars 4 stars 5 stars
comments

Kids Tab

   
-------------------------------------------------------------------------------
	                  KIDS - moe.
-------------------------------------------------------------------------------
Lyrics by: A. Schnier
Music by: moe.
Tabbed by: Jake
Email: friendofthedevii@hotmail.com

Tuning: Standard
[ Tab from: http://www.guitartabs.cc/tabs/m/moe/kids_tab.html ]
e|-12-12-12--------------------------------------------------|
B|----------12-10-9-10-12-14--12--14-------------------------|
G|-----------------------------------------------------------|
D|-----------------------------------------------------------|
A|-----------------------------------------------------------|
E|-----------------------------------------------------------|

e|-12-12-12--------------------------------------------------|
B|----------12-10-9-10-12------------------------------------|
G|------------------------9----------------------------------|
D|-----------------------------------------------------------|
A|-----------------------------------------------------------|
E|-----------------------------------------------------------|


| /  slide up
| \  slide down
| h  hammer-on
| p  pull-off
| ~  vibrato
| +  harmonic
| x  Mute note
===============================================================================
Comments