Moe - Happy Hour Hero Chords & Tabs

 

Happy Hour Hero Chords & Tabs

Moe Chords & Tabs

Version: 1 Type: Tab 0 ratings
1 star 2 stars 3 stars 4 stars 5 stars
comments

Happy Hour Hero Tab

   
this is one of my favorite songs, and the tab sounds a lot like the song.  I'll post the rest later.

All the fret positions in parentheses ( ), are bends. So like 10 (12), 10th fret and bend to the 12th.
 h is hammer on, and the slashes, \ /, are slides.  i hope this sounds right.

G6
[ Tab from: http://www.guitartabs.cc/tabs/m/moe/happy_hour_hero_tab.html ]
E-3-------------------------------------------------|
B-3---------------------------10 (12)---10 (12)-----|
G-0-------------------------------------------------|
D-2-------------------------------------------------|
A-x-------------------------------------------------|
E-3-------------------------------------------------|

E------------------------------------------------------------------------------------|
A-17 (19)-17-14------------------12------12--------------------------14-16-12\11/12--|
D---------------17-16--14-------12 h 14------------------------14-16-------12\11/12--|
G--------------------------------------------------------14-16-----------------------|
B-------------------------------------------------14 - 16----------------------------|
E------------------------------------------14 h 16-----------------------------------|
Comments