Moe - Crab Eyes Chords & Tabs

 

Crab Eyes Chords & Tabs

Moe Chords & Tabs

Version: 1 Type: Tab 0 ratings
1 star 2 stars 3 stars 4 stars 5 stars
comments

Crab Eyes Tab

Crab Eyes
Album(s): Warts and All, Wormwood
Lyrics Written By: 
Transcribed By: Jo Jo Mellon(coollarryf@wmconnect.com)

Crab Eyes 

intro(not done yet)

main riff (solo on C#m pentatonic)
---------------------------------------------------
---------------------------------------------------
---------------------------------------------------
----------------------------------6-4--------------
4-4-4-4-2----------2h4--4-4-4-4-2--------2h4-------
----------4-2--2h4-------------------2h4-----------


         x4
-----------|-0----2----0---2----0---2---0---2------
-----------|-0----2----0---2----0---2---0---2------
-----------|-1----3----1---3----1---3---1---3------
-----------|-2----4----2---4----2---4---2---4------
--4-4--6-6-|-2----4----2---4----2---4---2---4------
-----------|-0----2----0---2----0---2---0---2------

[ Tab from: http://www.guitartabs.cc/tabs/m/moe/crab_eyes_tab.html ]
verse & chorus
                        (played at end of verse lines)
-9--9-7-7---9--9-7-7---|---4--|--4h5p4---------------
-9--9-7-7---9--9-7-7---|---4--|----------------------
-9--9-8-8---9--9-8-8---|---5--|----------------------
11-11-9-9--11-11-9-9---|---6--|----------------------
-----------------------|------|----------------------
-----------------------|------|----------------------

Chucks verse riff
---------------------------------------------------
-9-10-12--9--7b(8)--4h5p4--------------------------
---------------------------------------------------
---------------------------------------------------
---------------------------------------------------
---------------------------------------------------

steel drum chorus riff
--------------------------------------------------
-------9------------------------------------------
-9-11----11--9------------------------------------
---------------9--11------------------------------
--------------------------------------------------
--------------------------------------------------


Well thats the whole song except for the intro.
Comments