Moe - Bring You Down Chords & Tabs

 

Bring You Down Chords & Tabs

Moe Chords & Tabs

Version: 1 Type: Tab 0 ratings
1 star 2 stars 3 stars 4 stars 5 stars
comments

Bring You Down Tab

Intro:


e------------12----------------------10---------------------------------------------------------------|
B----------------12------------12-----------------17--------------------------------------------------|
G-11b13------------13r11------------16b18------18r16-14\13-14p13--------------------------------------|
D-------------------------------------------------------------------------------------14--------------|
A------------------------------------------------------------------------------------------14\12--11--|
E-----------------------------------------------------------------------------------------------------|
[ Tab from: http://www.guitartabs.cc/tabs/m/moe/bring_you_down_tab.html ]
e--------------12-----------------------------------------------------------------|
B---------------------------------------------------------------------------------|
G11b13------13r11---9h119h11p9---------9--------9----9----9--9--9---------------|
D----------------------------------------------------12---9h11--11--11---9--7--6--|
A---------------------------------------------------------------------------------|
E---------------------------------------------------------------------------------|
-This same lead part is played 3 times throughout the song, two times before the solo and once at the end.


The other guitar part plays an E-Bminor-D-A, sort of arpegiating the entire song.
     -This rhythm guitar part plays this but when he goes "here with me" they skip the A 
the progression and strum.
That's the song, the solo is later, but you can just make one up
Holla.
Comments