Moe - 32 Things Chords & Tabs

 

32 Things Chords & Tabs

Moe Chords & Tabs

Version: 1 Type: Tab 0 ratings
1 star 2 stars 3 stars 4 stars 5 stars
comments

32 Things Tab

E-------------------------------------------- 
B-------------------------------------------- 
G--------------------3---3-h-4--------------- 
D--------------3-h-5---5-------5p3-5p3----3-- 
A--------3-h-5-------------------------5----- 
E--3-h-6------------------------------------- 

E------------------------------------------- 
B------------------------------------------- 
G------------------------------------------- 
D--5-p-3----3------------------------------- 
A--------5----5-p-3----3-5p3--5p3-5p3------- 
E--------------------5----------------6----- 

E-------------------------------------------- 
B-------------------------------------------- 
G--------------------3---3-h-4--------------- 
D--------------3-h-5---5-------5p3-5p3----3-- 
A--------3-h-5-------------------------5----- 
E--3-h-6------------------------------------- 

E------------------------------------------- 
B------------------------------------------- 
G-------------------------------------------
D--5-p-3----3------------------------------- 
A--------5----5-p-3----3-5p3--5p3-5p3------- 
E--------------------5----------------6--3-- 
[ Tab from: http://www.guitartabs.cc/tabs/m/moe/32_things_tab.html ]
Verse.
E----------------------------------------- 
B----------------------------------------- 
G---------x-3-------------x-3------------- 
D---3-h-5-----x-3---3-h-5----3-3---------- 
A----------------------------------------- 
E----------------------------------------- 

E----------------------------------------- 
B----------------------------------------- 
G---------3---------5---3----------------- 
D--3-h-5-----3--3---5---3----------------- 
A-------------------3---1----------------- 
E----------------------------------------- 

second time, he does a little variation on the ending slow part. 
E--------------------------------------- 
B---------------------11b~~------------- 
G------10----10-h-12-------12--10-h-12-- 
D-/12-----12---------------------------- 
A--------------------------------------- 
E--------------------------------------- 

E----------------------------------------- 
B-----------------------------------11b~~- 
G--10---------------10------10-H-12------- 
D------12--10--/12------12---------------- 
A----------------------------------------- 
E----------------------------------------- 

Comments