Modjo - Lady Chords & Tabs

 

Lady Chords & Tabs

Modjo Chords & Tabs

Version: 2 Type: Bass Tab 0 ratings
1 star 2 stars 3 stars 4 stars 5 stars
comments

Lady Bass Tab

Intro:

/- Slowly fade in ------------------------------\
G-----------|-----------|-----------|-----------|
D-----------|-----------|-----------|-----------|
A-2---2----2|-2---2----2|-2---2----2|-2---2----2|
E-----------|-----------|-----------|-----------|

G-----------|-----------|-----------|-----------|
D-----------|-----------|-----------|-----------|
A-2---2----2|-2---2----2|-2---2----2|-2---2----2|
E-----------|-----------|-----------|-----------|

G-----------|-----------|-----------|-----------|
D-----------|-----------|-2---2----2|-2---2-----|
A-----------|-----------|-----------|-----------|
E-3---3----3|-3---3----3|-----------|-----------|

Verse:
 "Lady, hear me tonight.."
G-----------|-----------|-----------|-----------|
D-----------|-----------|-----------|-----------|
A-2---2----2|-2---2----2|-2---2----2|-2---2----2|
E-----------|-----------|-----------|-----------|

G-----------|-----------|-----------|-----------|
D-----------|-----------|-2---2----2|-2---2-----|
A-----------|-----------|-----------|-----------|
E-3---3----3|-3---3----3|-----------|-----------|
[ Tab from: http://www.guitartabs.cc/tabs/m/modjo/lady_btab_ver_2.html ]
 "Lady, I just feel like" 
G-----------|-----------|-----------|-----------|
D-----------|-----------|-----------|-----------|
A-2---2----2|-2---2----2|-2---2----2|-2---2----2|
E-----------|-----------|-----------|-----------|

G-----------|-----------|-----------|-----------|
D-----------|-----------|-2---2----2|-2---2-----|
A-----------|-----------|-----------|-----------|
E-3---3----3|-3---3----3|-----------|-----------|

Chorus:
G-----6-4---|-----6-4---|-----------|-----------|
D---4-----4-|---4-----4-|-----7-5---|-----7-5-4-|
A-2---------|-2---------|---5-----5-|---5-------|
E-----------|-----------|-3---------|-3---------|

G-----------|-----------|-----6-4---|-----6-4---|
D-2---4-2---|-2---4-2---|---4-----4-|---4-----4-|
A---2-----2-|---2-----2-|-2---------|-2---------|
E-----------|-----------|-----------|-----------|

G-----6-4---|-----6-4---|-----------|-----------|
D---4-----4-|---4-----4-|-----7-5---|-----7-5-4-|
A-2---------|-2---------|---5-----5-|---5-------|
E-----------|-----------|-3---------|-3---------|

G-----------|-----------|-----------|-----------|
D-2---4-2---|-2---4-2---|-----4-----|-----------|
A---2-----2-|---2-----2-|---4---4---|-----------|
E-----------|-----------|-2--------2|-2----2----|

Repeat Verse 1
Repeat Chorus

Repeat Verse 1, slowly fade in

Repeat Chorus fading out
Comments