Modey Lemon - Crows Chords & Tabs

 

Crows Chords & Tabs

Modey Lemon Chords & Tabs

Version: 1 Type: Tab 0 ratings
1 star 2 stars 3 stars 4 stars 5 stars
comments

Crows Tab

Author/Artist: Modey Lemon (http://www.themodeylemon.com)
Title: Crows
Transcribed by: Andrew Biles

This is their latest single from the album 'Thunder & Lightning'.
I think I've got most of it down correctly, although after section after the verse, I 
that bit at all as I couldn't work out what was going on.  If anyone knows it, please it 
the corrections part and I'll have a look at it.

Standard Tuning

 Intro
|------------------|-----------------|------------------|---------------------|
|------------------|-----------------|------------------|---------------------|
|------------------|-----------------|------------------|---------------------|
|-9-9--0h2p0-------|--9-9----7-7-7-7-|-9-9--0h2p0-------|-9-9----7-7-7-7--7-7-|
|-7-7--------2p0---|--7-7----5-5-5-5-|-7-7--------2p0---|-7-7----5-5-5-5--5-5-|
|----------------3-|-----------------|----------------3-|---------------------|
                x3                x1                 x3

-------------------|
-------------------|
-------------------|
-7-7---------------|
-5-5--/\/\/\/\/\/\-|
-------------------|
      ^pickscrape


 Verse
|------------------|----------------------|------------------|------------|
|------------------|----------------------|------------------|------------|
|------------------|----------------------|------------------|------------|
|-9----------------|----------------7-7-7-|-9----------------|-9----7-7-7-|
|-7--------0-0h2h5-|--5-5-5-5-5-4---5-5-5-|-7--------0-0h2h5-|-7----5-5-5-|
|-0--0-0h3---------|--3-3-3-3-3-2---------|-0--0-0h3---------|------------|
                x6                     x1                 x3           x1
[ Tab from: http://www.guitartabs.cc/tabs/m/modey_lemon/crows_tab.html ]
|------------------------------------------------------------|---------------|
|------------------------------------------------------------|---------------|
|------------------------------------------------------------|---------------|
|-7--x-x-x-x-x-12-12-/9/---x-x-x-x-12-12-/9/---x-x-x-x-12-12-|-/9/---x-x-x-x-|
|-5--x-x-x-x-x-10-10-/7/---x-x-x-x-10-10-/7/---x-x-x-x-12-12-|-/7/---x-x-x-x-|
|------------------------------------------------------------|---------------|
                                                         x4

-----------|
-----------|
-----------|
-12-12-/9/-|
-10-10-/7/-|
-----------|


 Verse 2
|------------------|------------|------------------|---------------------|-------|
|------------------|------------|------------------|---------------------|-------|
|------------------|------------|------------------|---------------------|-------|
|-9----------------|-9----7-7-7-|-9----------------|---------------7-7-7-|-9-----|
|-7--------0-0h2h5-|-7----5-5-5-|-7--------0-0h2h5-|-5-5-5-5-5-4---5-5-5-|-7-----|
|-0--0-0h3---------|------------|-0--0-0h3---------|-3-3-3-3-3-2---------|-0--0--|
                x7           x1                 x6                    x1

-------------|---------------------|------------------|---------|
-------------|---------------------|------------------|---------|
-------------|---------------------|------------------|---------|
-------------|---------------7-7-7-|-9----------------|---------|
-----0-0h2h5-|-5-5-5-5-5-4---5-5-5-|-7--------0-0h2h5-|-5-----4-|
-0h3---------|-3-3-3-3-3-2---------|-0--0-0h3---------|-3-----2-|
          x2                                       x2


|------------------|-----------------|------------------|---------------------|
|------------------|-----------------|------------------|---------------------|
|------------------|-----------------|------------------|---------------------|
|-9-9--0h2p0-------|--9-9----7-7-7-7-|-9-9--0h2p0-------|-9-9----7-7-7-7--7-7-|
|-7-7--------2p0---|--7-7----5-5-5-5-|-7-7--------2p0---|-7-7----5-5-5-5--5-5-|
|----------------3-|-----------------|----------------3-|---------------------|
                x3                x1                 x3

-------------------|
-------------------|
-------------------|
-7-7---------------|
-5-5--/\/\/\/\/\/\-|
-------------------|
      ^pickscrape

any questions? andrewbiles@hotmail.com
Comments