Modest Mouse - Worms Vs Birds Chords & Tabs

 

Worms Vs Birds Chords & Tabs

Modest Mouse Chords & Tabs

Version: 2 Type: Tab 0 ratings
1 star 2 stars 3 stars 4 stars 5 stars
comments

Worms Vs Birds Tab

here we go... just figured this out...

--------------------------------------
Song Title: Worms Vs. Birds
Artist: Modest Mouse
Album: Sad Happy Sucker
Year Released: 2001
--------------------------------------

Standard Tuning: EADGBE
[ Tab from: http://www.guitartabs.cc/tabs/m/modest_mouse/worms_vs_birds_tab_ver_2.html ]
E|-----------------------------------------------------|
B|-----------------------------------------------------|
G|--------11-----11---9--9-9/14-12-11------------------|
D|----12----12-12--12-----------------12-12-9--9-9-9---|
A|---------------------------------------------------12|
E|-----------------------------------------------------|

                       4x (note: he changes it up slightly every time, but it's
                           similar to this still)
E|---------------------||
B|--------------------.||
G|---------------------||
D|--9--9--9--9--9-11---||
A|---12-12-12-12------.||
E|---------------------||

Tabbed By Matt, AKA Ceakoth
Comments