Modest Mouse - Worms Vs Birds Chords & Tabs

 

Worms Vs Birds Chords & Tabs

Modest Mouse Chords & Tabs

Version: 1 Type: Tab 1 rating
1 star 2 stars 3 stars 4 stars 5 stars
comments

Worms Vs Birds Tab

   
Song Title: Worms vs. Birds
Band Name: Modest Mouse
Album: Sad Sappy Sucker
Tabbed by: Casey C.
     

 Standard Tuning


      Riff 1- Guitar 1                                          

e -----------------------------------------------------------      
B --7-----7--------------------------------------------------    
G 7---7-7---7-9-9-9\14-12\11-9-7---7-------------------------   5x  
D -------------------------------9---9-9-7-7-9-9-9-9-9-9-7-7-      
A -----------------------------------------------------------     
E -----------------------------------------------------------      

 
     Riff 2 - Guitar 2 - This this is played with Riff 1 - You hit the slide on this riff at the same time your hitting  
                                                           the 9th fret on D in the 1st Riff.
[ Tab from: http://www.guitartabs.cc/tabs/m/modest_mouse/worms_vs_birds_tab.html ]
e ------12-------12-------12-------12-------12---------7-----7-----7-----7-----7-
B 10-10----10-10----10-10----10-10----10-10----10\-5-5---5-5---5-5---5-5---5-5---
G -------------------------------------------------------------------------------   4x - Plays after Riff 1 is played once.
D -------------------------------------------------------------------------------
A -------------------------------------------------------------------------------
E -------------------------------------------------------------------------------

**************************

    CHORUS  Lyrics start here.
e ---------------------------
B ---------------------------
G 9-9-9-9-9-x----------------             
D 9-9-9-9-9-x-9-9-9-9-9-9-9-9    Plays 9x and resumes to Riff 1
A 7-7-7-7-7-x-9-9-9-9-9-9-9-9    
E ------------7-7-7-7-7-7-7-7
 
   "Self-pity me, so pitiful..."

*************************

      Song soon ends after playing the the 1st RIFF 4x

************************
Guitar KEY:    / - slide up or down
              
               x - mute but strike strings with x's on it


**********************

Nice, easy song to add to anyone's collection.
Comments