Modest Mouse - World At Large Chords & Tabs

 

World At Large Chords & Tabs

Modest Mouse Chords & Tabs

Version: 3 Type: Tab 0 ratings
1 star 2 stars 3 stars 4 stars 5 stars
comments

World At Large Tab

submitted by andy


intro
[ Tab from: http://www.guitartabs.cc/tabs/m/modest_mouse/world_at_large_tab_ver_3.html ]
e|-|---------------------------------|-|---------------------------------|-|
B|-|-7-7-7-7-7-7-7-9-6-6-6-6-6-6-6-4-|-|-0-0-0-0-0-0-0-2---------------2-|-|
G|-|---------------------------------|-|-----------------3-3-3-3-3-3-3---|-|
D|-|---------------------------------|-|---------------------------------|-|
A|-|---------------------------------|-|---------------------------------|-|
E|-|---------------------------------|-|---------------------------------|-|

the rest

e|-|---6---6----6---6---|-|---6---6-------6-----|-|
B|-|--7-7-7-7--6-6-6-6--|-|--7-7-7-7---6---6-6--|-|
G|-|-6---6----6---6-----|-|-8---8-----6-6---6---|-|
D|-|--------------------|-|----------8----------|-|
A|-|--------------------|-|---------------------|-|
E|-|--------------------|-|---------------------|-|
Comments